All Time Low

Holly Would You Turn Me On tab

All Time Low

tools Ultimate Tabs

Start AutoScroll Font Size Down Font Size Up

Find us on Facebook

chords
tabs
bass ukulele keyboards
drums
flute
harmonica
guitar pro video
Ultimate-Tabs

Holly Would You Turn Me On

Song: HOLLY (WOULD YOUR TURN ME ON?)
Artist: ALL TIME LOW
Album: SO WRONG, IT'S RIGHT


INTRO PART 1:

e|--------|
B|--------|
G|--4-----| 
D|--4-4-2-|   X2
A|--2-4-2-|
E|----2-0-|

INTRO PART 2:

e|-----------------------------------|
B|-----------------------------------|
G|-11-15-16--11-18-20-18-16-15-16-11-|
D|-X--x--X---X--X--X--X--X--X--X--X--| X2
A|-9--13-14--9--16-18-16-14-13-14-9--|
E|-----------------------------------|


VERSE:
(figure out palm muting)
e|-----------------|
B|-----------------|
G|-6---4-9-8-6---4-|
D|-6-4-4-9-8-6-4-4-|  X2
A|-4-4-2-7-6-4-4-2-|
E|---2---------2---|


PRE-CHORUS:

e|-------|
B|-------|
G|-------|
D|-6-4-2-|
A|-6-4-2-|
E|-4-2-0-|


CHORUS:

e|--------------------|
B|--------------------|
G|-16-15-16-11-8-3-11-|
D|-X--X--X--X--X-X-X--| X2
A|-14-13-14-9--6-1-9--|
E|--------------------|


INTRO PART 2

VERSE 
(all palm muting first time)

PRE-CHORUS

CHORUS

BRIDGE:

e|-------------------|
B|-------------------|
G|-4-3-11-8-6-8-6-11-|  X2
D|-X-X-X--X-X-X-X-X--|
A|-2-1-9--6-4-6-4-9--|
E|-------------------|

e|-----------------|
B|-----------------|
G|-4-----9-9-4-----|
D|-4-4-2-X-9-4-4-2-|
A|-2-4-2-6-7-2-4-2-|
E|---2-0-------2-0-|


CHORUS


Tabbed by: Ana
Any questions/comments email me at [email protected] 
less
plus
Add to Songbook Print Version How to play lesson Submit videolesson
Click the best TAGS for this song:
None of them
Contributor: NakeMadp Correct

If you can not find the chords or tabs you want, look at our partner E-chords. If you are a premium member, you have total access to our video lessons.

If you find a wrong Bad To Me from All Time Low, click the correct button above.

login/signup
my songbooks
my recent views
my submits