All Time Low

Lost In Stereo bass

All Time Low

Album:Nothing Personal

Year:2009

tools Ultimate Tabs

Start AutoScroll Font Size Down Font Size Up

Find us on Facebook

Ultimate-Tabs

Lost In Stereo

I found the song on a website and ended up figuring it out.
Song gets offically released with the album July 7th.

Intro:
G|-----------------------------------------------------------------|
D|-----------------------------------------------------------------|
A|-----------------1-1-1-1-1-1-1-1---------------------------------| x2
D|-5-5-5-5-5-5-5-5-----------------3-3-3-3-3-3-3-3-1-1-1-1-1-1-1-1-|

Verse
G|-----------------------------------------------------------------|
D|-----------------------------------------------------------------|
A|-1-1-1-1-1-1-1-1-1-1-1-1-1-1-1-1-0-0-0-0-0-0-0-0-0-0-0-0-0-0-0-0-|
D|-----------------------------------------------------------------|

G|-----------------------------------------------------------------|
D|-----------------------------------------------------------------|
A|-----------------------------------------------------------------|
D|-1-1-1-1-1-1-1-1-1-1-1-1-1-1-1-1-1-1-1-1-1-1-1-1-1-1-1-1-1-1---1-|

G|-----------------------------------------------------------------|
D|-----------------------------------------------------------------|
A|-1-1-1-1-1-1-1-1-1-1-1-1-1-1-1-1-0-0-0-0-0-0-0-0-0-0-0-0-0-0-0-0-|
D|-----------------------------------------------------------------|

G|-----------------------------------------------------------------|
D|-----------------------------------------------------------------|
A|-----------------------------------------------------------------|
D|-1-1-1-1-1-1-1-1-1-1-1-1-1-1-1-1-1-1-1-1-1-1-1-1-1---------------|

Chorus
G|-----------------------------------------------------------------|
D|-----------------------------------------------------------------|
A|-----------------1-1-1-1-1-1-1-1---------------------------------| x2
D|-5-5-5-5-5-5-5-5-----------------3-3-3-3-3-3-3-3-1-1-1-1-1-1-1-1-|

G|---------------------|
D|---------------------|
A|-----------1-1-------|
D|-5-5--1-1-------3-3--|

G|---------------------------------------------------|
D|---------------------------------------------------|
A|-----------------1-1-1-1-1-1-1-1-------------------|
D|-5-5-5-5-5-5-5-5-----------------3-3-3-3-3-3-3-3-1-|

Re-Intro:
G|-----------------------------------------------------------------|
D|-----------------------------------------------------------------|
A|-----------------1-1-1-1-1-1-1-1---------------------------------|
D|-5-5-5-5-5-5-5-5-----------------3-3-3-3-3-3-3-3-1-1-1-1-1-1-1-1-|

Verse
G|-----------------------------------------------------------------|
D|-----------------------------------------------------------------|
A|-1-1-1-1-1-1-1-1-1-1-1-1-1-1-1-1-0-0-0-0-0-0-0-0-0-0-0-0-0-0-0-0-|
D|-----------------------------------------------------------------|

G|-----------------------------------------------------------------|
D|-----------------------------------------------------------------|
A|-----------------------------------------------------------------|
D|-1-1-1-1-1-1-1-1-1-1-1-1-1-1-1-1-1-1-1-1-1-1-1-1-1-1-1-1-1-1---1-|

G|-----------------------------------------------------------------|
D|-----------------------------------------------------------------|
A|-1-1-1-1-1-1-1-1-1-1-1-1-1-1-1-1-0-0-0-0-0-0-0-0-0-0-0-0-0-0-0-0-|
D|-----------------------------------------------------------------|

G|-----------------------------------------------------------------|
D|-----------------------------------------------------------------|
A|-----------------------------------------------------------------|
D|-1-1-1-1-1-1-1-1-1-1-1-1-1-1-1-1-1-1-1-1-1-1-1-1-1---------------|

Chorus
G|-----------------------------------------------------------------|
D|-----------------------------------------------------------------|
A|-----------------1-1-1-1-1-1-1-1---------------------------------| x2
D|-5-5-5-5-5-5-5-5-----------------3-3-3-3-3-3-3-3-1-1-1-1-1-1-1-1-|

G|---------------------|
D|---------------------|
A|-----------1-1-------|
D|-5-5--1-1-------3-3--|

G|---------------------------------------------------|
D|---------------------------------------------------|
A|-----------------1-1-1-1-1-1-1-1-------------------| 
D|-5-5-5-5-5-5-5-5-----------------3-3-3-3-3-3-3-3-1-|

Bridge
G|-----------------------------------------------------------------|
D|-----------------------------------------------------------------|
A|-3-3-3-3-3-3-3-3-3-3-3-3-3-3-3-3-6-6-6-6-6-6-6-6-6-6-6-6-6-6-6-6-|
D|-----------------------------------------------------------------|

G|-----------------------------------------------------------------|
D|-----------------------------------------------------------------|
A|-1-1-1-1-1-1-1-1-1-1-1-1-1-1-1-1-0-0-0-0-0-0-0-0-0-0-0-0-0-0-0-0-|
D|-----------------------------------------------------------------|

G|-----------------------------------------------------------------|
D|-----------------------------------------------------------------|
A|-3-3-3-3-3-3-3-3-3-3-3-3-3-3-3-3-6-6-6-6-6-6-6-6-6-6-6-6-6-6-6-6-|
D|-----------------------------------------------------------------|

G|------------------------------------|
D|------------------------------------|
A|-8-8-8-8-8-8-8-8-8-8-8-8-8-8-8-8-8~-|
D|------------------------------------|

Chorus
G|-----------------------------------------------------------------|
D|-----------------------------------------------------------------|
A|-----------------1-1-1-1-1-1-1-1---------------------------------| x2
D|-5-5-5-5-5-5-5-5-----------------3-3-3-3-3-3-3-3-1-1-1-1-1-1-1-1-|

G|---------------------|
D|---------------------|
A|-----------1-1-------|
D|-5-5--1-1-------3-3--|

G|-----------------------------------------------------------------|
D|-----------------------------------------------------------------|
A|-----------------1-1-1-1-1-1-1-1---------------------------------| x3
D|-5-5-5-5-5-5-5-5-----------------3-3-3-3-3-3-3-3-1-1-1-1-1-1-1-1-|

G|---------------------|
D|---------------------|
A|-----------1-1-------|
D|-5-5--1-1-------3-3--|

G|-----------------------------------------------------------|
D|-----------------------------------------------------------|
A|-----------------1-1-1-1-1-1-1-1---------------------------|
D|-5-5-5-5-5-5-5-5-----------------3-3-3-3-3-3-3-3-1-1-1-1-1-|
less
plus
Add to Songbook Print Version How to play lesson Submit videolesson
Click the best TAGS for this song:
None of them
Contributor: bubusupe Correct

If you can not find the chords or tabs you want, look at our partner E-chords. If you are a premium member, you have total access to our video lessons.

If you find a wrong Bad To Me from All Time Low, click the correct button above.

login/signup
my songbooks
my recent views
my submits