tools Ultimate Tabs

Start AutoScroll Font Size Down Font Size Up

Find us on Facebook

chords
tabs
bass
ukulele
keyboards
drums
flute
harmonica
guitar pro
video
Ultimate-Tabs

Poppin'

     Intro 
E---------------------------| 
B---------------------------| 
G---------------------------| 
D-2-2-2-5-5-5-2-2-2-2-5-5-5-| 
A-3-3-3-5-5-5-0-0-0-0-5-5-5-| 
E-------5-5-5---------5-5-5-| 

     Verse 
E-----------------------| 
B-----------------------| 
G-----------------------| 
D---------2---2---------| 
A-3---3---0-0-0-0-2---2-| 
E-3-3-3-3---------0-0-0-| 

     Bridge 
E-------------------------| 
B-------------------------| 
G---------4-4-4-4---------| 
D-2-2-2-2-4-4-4-4-2-2-2-2-| 
A-2-2-2-2-4-4-4-4-2-2-2-2-| 
E-0-0-0-0---------2-2-2-2-| 

     Chorus 
E---------------------------------| 
B---------------------------------| 
G---------------2-2-2-2-2-2-2-2-2-| 
D-0-0-0-5-5-5-5-2-2-2-2-2-3-3-3-3-| 
A-0-0-0-5-5-5-5-2-2-2-2-2-0-0-0-0-| 
E-------5-5-5-5-------------------|  
less
plus
Add to Songbook Print Version How to play lesson Submit videolesson
Click the best TAGS for this song:
None of them
Contributor: abcvmaxi Correct

If you can not find the chords or tabs you want, look at our partner E-chords. If you are a premium member, you have total access to our video lessons.

If you find a wrong Bad To Me from All Time Low, click the correct button above.

login/signup
my songbooks
my recent views
my submits