All Time Low

Remembering Sunday bass

All Time Low

Album:MTV Unplugged

Year:2010

tools Ultimate Tabs

Start AutoScroll Font Size Down Font Size Up

Find us on Facebook

chords tabs
bass
ukulele keyboards
drums
flute
harmonica
guitar pro video
Ultimate-Tabs

Remembering Sunday

This is mostly an acoustic song, but this is a bit of bass. It comes in about
half way, then stops, then kicks in at the end. Kinda slow, but a cool little
song. I just did the rythem no funky stuff. still sounds right though.

"She woke up from dreaming..."
(No bass)

Chorus
"Forgive me I'm trying to find.."
(No Bass)

"Even though she doesn't believe in love.."
G---------------------------------------|
D---------------------------------------|
A---------------------------------------|
E-2-2-2-2-2-2-2-2-2-5-5-5-5-5-5-5-5-5-5-|

"Who could deny these butterflies..."
G-------------------------------------------------------|
D-------------------------------------------------------|
A-------------------------------------------------------|
E-2-2-2-2-2-2-4-4-4-5-5-5-2-2-2-2-2-2-2-5-5-5-5-5-5-5-5-|

"Waking the neighbors, unfamiliar faces..."
G---------------------------------------|
D---------------------------------------|
A---------------------------------------|
E-2-2-2-2-2-2-2-2-2-5-5-5-5-5-5-5-5-5-5-|

"He pleads though he tries..."
G-------------------------------------------------------|
D-------------------------------------------------------|
A-------------------------------------------------------|
E-2-2-2-2-2-2-4-4-4-5-5-5-2-2-2-2-2-2-2-777777777777777-|

Chorus
"Forgive me I'm trying to find.."
G-----
D-----
A-----
E-5~~~

"The neighbors said she moved away..."
(No bass)

"Oh, I can see now..."
G----
D----
A----
E-222

"That all of these clouds..."
G----
D----
A----
E-555

"Are following me in my desprite indever..."
G---------------------------|
D---------------------------|
A---------------------------|
E-5-5-5-5-5-5-5-4-4-4-4-4-4-|

Chorus/Female voice
"I'm not coming back..."
G-------------------------------------|
D-------------------------------------|
A---------55555555-22222222-55555555--|
E-55555555----------------------------| X2

(Music stops)

"I guess I'll go home now..."
(No bass)

Not much bass, but thats whats right of the little bass tehre is. A real
meaningful song that just makes you wanna play it even though there isn't much
bass. Any questions? E-mail me at [email protected]
less
plus
Add to Songbook Print Version How to play lesson Submit videolesson
Click the best TAGS for this song:
None of them
Contributor: jestShan Correct

If you can not find the chords or tabs you want, look at our partner E-chords. If you are a premium member, you have total access to our video lessons.

If you find a wrong Bad To Me from All Time Low, click the correct button above.

login/signup
my songbooks
my recent views
my submits