All Time Low

So Long, And Thanks For All The Booze tab

All Time Low

tools Ultimate Tabs

Start AutoScroll Font Size Down Font Size Up

Find us on Facebook

chords
tabs
bass
ukulele keyboards
drums
flute
harmonica
guitar pro
video
Ultimate-Tabs

So Long, And Thanks For All The Booze

Tuning: C# 

Intro (Distorted) 

e|-----------------------------------------------------------------------------| 
B|-----------------------------------------------------------------------------| 
G|-------11------10----------7-------------------------------------------------| 
D|-0-----X---8----X----5-----X-------------------------------------------------| 
A|-0-----9x4-8----8x4--5-----5x4-----------------------------------------------| 
D|-0x3-------8x3-------5x3--------5-3-0-5-0-3----------------------------------| 

Verse 
e|----------------------------------------------------------------------| 
B|----------------------------------------------------------------------| 
G|-7--------------------------------------------------------------------| 
D|-7--8--5-------------------10-10-9-9-8-8-8-7--------------------------| 
A|-5--8--5--------------------------------------------------------------| 
D|----8--5---(x2)-------------------------------------------------------| 
  PM PM  PM 
Chorus 
e|------------------------------------------------------------------------| 
B|------------------------------------------------------------------------| 
G|-7---------7-----------7------------------------------------------------| 
D|-7--7---5--7--7--5--8--7--7--5--8--7------------------------------------| 
A|-5--7---5--5--7--5--8--5--7--5--8--7------------------------------------| 
D|----7---5-----7--5--8-----7--5--8--7------------------------------------| 
  (   1    )(    2     )(    3  )( 4  ) 
Repeat Intro 
Repeat Verse 
Repeat Chorus 

Bridge 
e|--------------------------------------------------------------------------| 
B|--------------------------------------------------------------------------| 
G|--------------------------------------------------------------------------| 
D|-10-10-9-9-8-8-8-7--------------------------------------------------------| 
A|--------------------------------------------------------------------------| 
D|--------------------------------------------------------------------------| 

Repeat Chorus 
  
less
plus
Add to Songbook Print Version How to play lesson Submit videolesson
Click the best TAGS for this song:
None of them
Contributor: colikfar Correct

If you can not find the chords or tabs you want, look at our partner E-chords. If you are a premium member, you have total access to our video lessons.

If you find a wrong Bad To Me from All Time Low, click the correct button above.

login/signup
my songbooks
my recent views
my submits