All Time Low

Weightless bass

All Time Low

Album:Nothing Personal

Year:2009

tools Ultimate Tabs

Start AutoScroll Font Size Down Font Size Up

Find us on Facebook

chords tabs
bass
ukulele keyboards
drums
flute
harmonica
guitar pro video
Ultimate-Tabs

Weightless

intro
g----------------enjoy-------------|
d----------------------------------|
a----------------------------------|
e------------55------9------99-99--|

prechorus
g--------------------------------|
d--------------------------------|
a--------------------------------|
e-9999999999999999---------------|

chorus
g---------------------------------------------------------|
d-----------------2h5--------------------------22555------|
a---------33333333---42--------2222222200000000------4420-|
e-22222222-------------22222222---------------------------|

g-------------------------------------------------|
d-------------------------------------------------|
a-------------------------------------------------|
e-2222222200000000-7h99999999---0--9-9-999-9-9999-|

verse
g----no---bass--till--1:29--or-----------------------------------------------|
d---if-i-could-just-find-the-time--------------------------------------------|
a--------------------------------------------------------tweleves-not-1-2----|
e------------------------------999999990000000022222222/1212121212121212-----|
chorus
g---------------------------------------------------------|
d-----------------2h5--------------------------22555------|
a---------33333333---42--------2222222200000000------4420-|
e-22222222-------------22222222---------------------------|

g--------------------------------------------------|
d--------------------------------------------------|
a--------------------------------------------------|
e-2222222200000000-7h99999999---0--9-9-999-9-9-999-|
prebridge
g----------------------------|
d----------------------------|
a----------------------------|
e-10-10-101010--10-10-101010-|
bridge
g---------------------------(--really-fast------|
d-----------------------------12121111----------|
a---------------------------99--------1111p9----|
e-0/121212121212121200009999--------------------|

g-------------------------------|
d-------------------------------|
a-------------------------------|
e-2222222200000000-7h99999999/16

g-----------------------------------|
d-----------------------------------|
a-----------------------------------|
e-------0~-------9~--------9~-------|
chorus
g---------------------------------------------------------|
d-----------------2h5--------------------------22555------|
a---------33333333---42--------2222222200000000------4420-|
e-22222222-------------22222222---------------------------|

g------------------------------------------------------------|
d------------------------------------------------------------|
a------------------------------------------------------------|
e-2222222200000000-7h99999999---0--9-9-999-9-9999-9-9-999-99-|
less
plus
Add to Songbook Print Version How to play lesson Submit videolesson
Click the best TAGS for this song:
None of them
Contributor: jim_reel Correct

If you can not find the chords or tabs you want, look at our partner E-chords. If you are a premium member, you have total access to our video lessons.

If you find a wrong Bad To Me from All Time Low, click the correct button above.

login/signup
my songbooks
my recent views
my submits