S Alter Bridge

Metalingus tab

Alter Bridge

Album:One Day Remains

Year:2004

tools Ultimate Tabs

Start AutoScroll Font Size Down Font Size Up

Find us on Facebook

chords
tabs
bass ukulele keyboards
drums
flute
harmonica
guitar pro video
Ultimate-Tabs

Metalingus

 
afinação : (Db Ab Db Gb bb eb ) 
 
intro 
 
gtr1                                    w/ bar.........| |....|  PS  
eb|*12-------------------------------(12)---------------*9----*12-|  
bb|*12-------------------------------(12)----------*9---------*12-|  
gb|-----------------------------------------------------------*12-|  
Db|---------------------------------------------------------------|  
Ab|-------------------------------------------------------------\\|  
Db|-------------------------------------------------------------\\|  
                                       /+0.5       \\-2 \\\\-3  
 
 
                   w/ bar.........|                   w/ bar.....|  
eb|---------------------------------------------------------------|  
bb|---------------------------------------------------------------|  
gb|--------------*5-------------------------------------*12-------|  
Db|--------------*5-------------------------------------*12-------|  
Ab|\5-2-0-2------*5------------------5-0-2-3-----2-\-0--*12-------|  
Db|\5-2-0-2--------------------------5-0-2-3-----2-\-0------------|  
                   \-0.5/\/\/\/\/                      /////+5\\\\  
 
 
preverse1  
eb|----------------------------------------------------------------|  
bb|----------------------------------------------------------------|  
gb|----------------------------------------------------------------|  
Db|----------------------------------------------------------------|  
Ab|---5-2-0-2-0-2-5-2-0-2-0-2-3-2-0-2-5-2-0-2-0-2-5-2-0-2-0-2------|  
Db|---5-2-0-2-0-2-5-2-0-2-0-2-3-2-0-2-5-2-0-2-0-2-5-2-0-2-0-2-3-3-3|  
  \\  
 
                                                            PM....  
eb|----------------------------------------------------------------|  
bb|----------------------------------------------------------------|  
gb|----------------------------------------------------------------|  
Db|----------------------------------------------------------------|  
Ab|---5-2-0-2-0-2-5-2-0-2-0-2-3-2-0-2-5-2-0-2-0-2-5-2-0-2-0-2-3-3-3|  
Db|-3-5-2-0-2-0-2-5-2-0-2-0-2-3-2-0-2-5-2-0-2-0-2-5-2-0-2-0-2-3-3-3|  
 
verse 1  
       I've been        defeated               and brought  
gtr1  
eb|---------------------------------------------------------------|  
bb|---8---------------------1010------------------6---------------|  
gb|---7---------------------9-9-------7-----------5---------------|  
Db|---5---------------------7-7-------0-----------3---------------|  
Ab|-3-5---------------------7-7-------0-----------3---------------|  
Db|-3-5---------------------7-7-------0-----------3---------------|  
 
 
      down.........                           oh....  
     PM....|  PM......|   PM........| PM..|   PM  PM..|       PM..  
eb|---------------------------------------------------------------|  
bb|---------------------------------------------------------------|  
gb|---------------------------------------------------------------|  
Db|---------------------------------------------------------------|  
Ab|---5-2-0-2---2-5-2-0-2---2-5-2-0-2-5-2-0-2---2-5-2-0-2---3---2-|  
Db|---5-2-0-2---2-5-2-0-2---2-5-2-0-2-5-2-0-2---2-5-2-0-2---3---2-|  
 
 
         dropped        to my      knees    when hope     ran  
...|                                           w/ bar  
eb|---------------------------------------------------------------|  
bb|---8---------------------1010----------------------------------|  
gb|---7---------------------9-9-------7---------------------------|  
Db|---5---------------------7-7-------0---------------------------|  
Ab|-2-5---------------------7-7-------0---------------------------|  
Db|-2-5---------------------7-7-------0----------*2.8~~~~~~~~~~~~~|  
                                                    //+2\\/\  
 
   out                                         oh...............  
     PM....|  PM......|   PM........| PM..|   PM  PM..|       PM..  
eb|---------------------------------------------------------------|  
bb|---------------------------------------------------------------|  
gb|---------------------------------------------------------------|  
Db|---------------------------------------------------------------|  
Ab|---5-2-0-2---2-5-2-0-2---2-5-2-0-2-5-2-0-2---2-5-2-0-2---3---2-|  
Db|~~-5-2-0-2---2-5-2-0-2---2-5-2-0-2-5-2-0-2---2-5-2-0-2---3---2-|  
 
 
        The  time        has      come     to change          my  
...|  
eb|---------------------------------------------------------------|  
bb|---8---------------------1010------------------6---------------|  
gb|---7---------------------9-9-------7-----------5---------------|  
Db|---5---------------------7-7-------0-----------3---------------|  
Ab|-2-5---------------------7-7-------0-----------3---------------|  
Db|-2-5---------------------7-7-------0-----------3-------------2-|  
 
 
Prechorus  
           ways..................................................  
gtr1  wah..........................................................  
eb|---------------------------------------------------------------|  
bb|---------------------------------------------------------------|  
gb|---------------------------------------------------------------|  
Db|---------------------------------------------------------------|  
Ab|---------------------------------------------------------------|  
Db|-2-5-2-0-2-0-2-5-2-0-2-0-2-3-2-0-2-5-2-0-2-0-2-5-2-0-2-3-3-3-3-|  
 
 
   ..............................                         On this  
..................(wah)..............|  
eb|---------------------------------------------------------------|  
bb|---------------------------------------------------------------|  
gb|----------------------------------------------------------*5---|  
Db|-----------------------------------5-2-0-2-----5-2-0-2----*5---|  
Ab|-----------------------------------5-2-0-2-----5-2-0-2----*5---|  
Db|-5-2-0-2-0-2-5-2-0-2-0-2-3-2-0-2---5-2-0-2-----5-2-0-2---------|  
 
 
1stChorus  
    day                I   see      clearly                 every-  
gtr1                                                     w/bar(trem flutter)  
eb|---------------------------------------------------------------|  
bb|---------------------------------------------------------------|  
gb|---------------------------------------------7-7-----*5----~~~~|  
Db|---2-2-2-0-2---------2-----4-4---4-5---------5-5---5-----------|  
Ab|---2-2-2-0-2---------2-----4-4---4-5---------5-5---5-----------|  
Db|---2-2-2-0-2---------2-----4-4---4-5---------5-5---5-----------|  
                                                             \-.5/  
 
   thing        has   come      to   life                A bitter  
 
eb|---------------------------------------------------------------|  
bb|---------------------------------------------------------------|  
gb|-----------7---------------7-7-7-7-5-5---7---7-9-9-111112121414|  
Db|---0-0-----x-------0-0-0-0-x-x-x-x-x-x---x---x-x-x-x-x-x-x-x-x-|  
Ab|---0-0-----5-------0-0-0-0-5-5-5-5-3-3---5---5-7-7-9-9-10101212|  
Db|---0-0-----0-------0-0-0-0-------------------------------------|  
 
 
    place              and a        broken   dream       And we'll  
 
eb|---------------------------------------------------------------|  
bb|---------------------------------------------------------------|  
gb|---------------------------------------------7-7--------45754--|  
Db|-0-2-2-2-5-2---------2-----4-4---4-5---------5-5---5-457-----75|  
Ab|-0-2-2-2-5-2---------2-----4-4---4-5---------5-5---5-----------|  
Db|-0-2-2-2-5-2---------2-----4-4---4-5---------5-5---5-----------|  
 
 
   leave        it    all         leave        it     all  
 
eb|---------------------------------------------------------------|  
bb|---------------------------------------------------------------|  
gb|-----------7-----7---------9\7-7\5-5-5---7---9-1111121212141414|  
Db|---0-0---0-x-----x-0-0-0-0-x---x---x-x---x---x-x-x-x-x-x-x-x-x-|  
Ab|---0-0---0-5-----5-0-0-0-0-7\5-5\3-3-3---5---7-9-9-101010121212|  
Db|---0-0---0---------0-0-0-0-------------------------------------|  
 
 
 
   behind.....                                             yeah....  
gtr1  wah..........................................................  
eb|---------------------------------------------------------------|  
bb|---------------------------------------------------------------|  
gb|---------------------------------------------------------------|  
Db|---------------------------------------------------------------|  
Ab|---------------------------------------------------------------|  
Db|-0-5-2-0-2-0-2-5-2-0-2-0-2-3-2-0-2-5-2-0-2-0-2-5-2-0-2-3-3-3-3-|  
 
 
...........  
..........................(wah)..................................  
eb|---------------------------------------------------------------|  
bb|---------------------------------------------------------------|  
gb|---------------------------------------------------------------|  
Db|---------------------------------------------------------------|  
Ab|---------------------------------------------------------------|  
Db|-5-2-0-2-0-2-5-2-0-2-0-2-3-2-0-2-5-2-0-2-0-2-5-2-0-2-0-2-3-2-0-|  
 
 
Verse2  
       I'll       never     long       for what    might     have  
...|  
eb|---------------------------------------------------------------|  
bb|---8---------------------1010------------------6---------------|  
gb|---7---------------------9-9-------7-----------5---------------|  
Db|---5---------------------7-7-------0-----------3---------------|  
Ab|---5---------------------7-7-------0-----------3---------------|  
Db|-2-5---------------------7-7-------0-----------3---------------|  
 
 
   been...                                            no.........  
    PM....|   PM......|   PM........| PM..|   PM  PM..|       PM..  
eb|---------------------------------------------------------------|  
bb|---------------------------------------------------------------|  
gb|---------------------------------------------------------------|  
Db|---------------------------------------------------------------|  
Ab|---5-2-0-2---2-5-2-0-2---2-5-2-0-2-5-2-0-2---2-5-2-0-2---3---2-|  
Db|---5-2-0-2---2-5-2-0-2---2-5-2-0-2-5-2-0-2---2-5-2-0-2---3---2-|  
 
 
      Regret            won't       waste my   life         again  
...|                                           w/ bar  
eb|---------------------------------------------------------------|  
bb|---8---------------------1010----------------------------------|  
gb|---7---------------------9-9-------7---------------------------|  
Db|---5---------------------7-7-------0---------------------------|  
Ab|-2-5---------------------7-7-------0---------------------------|  
Db|-2-5---------------------7-7-------0----------*2.8~~~~~~~~~~~~~|  
                                                    //+2\\/\  
 
                                                oh............  
    PM....|   PM......|   PM........| PM..|   PM  PM..|     PM....  
eb|---------------------------------------------------------------|  
bb|---------------------------------------------------------------|  
gb|---------------------------------------------------------------|  
Db|---------------------------------------------------------------|  
Ab|---5-2-0-2---2-5-2-0-2---2-5-2-0-2-5-2-0-2---2-5-2-0-2---3-2---|  
Db|~~-5-2-0-2---2-5-2-0-2---2-5-2-0-2-5-2-0-2---2-5-2-0-2---3-2---|  
 
 
       I     won't       look      back    I'll   fight    to  
...|  
eb|---------------------------------------------------------------|  
bb|---8---------------------1010------------------6---------------|  
gb|---7---------------------9-9-------7-----------5---------------|  
Db|---5---------------------7-7-------0-----------3---------------|  
Ab|-2-5---------------------7-7-------0-----------3---------------|  
Db|-2-5---------------------7-7-------0-----------3-------------2-|  
 
Prechorus  
    remain.......................................................  
gtr1  wah..........................................................  
eb|---------------------------------------------------------------|  
bb|---------------------------------------------------------------|  
gb|---------------------------------------------------------------|  
Db|---------------------------------------------------------------|  
Ab|---------------------------------------------------------------|  
Db|-2-5-2-0-2-0-2-5-2-0-2-0-2-3-2-0-2-5-2-0-2-0-2-3-2-0-2-3-3-3-3-|  
 
 
   .............................                          On this  
..................(wah).............|  
eb|---------------------------------------------------------------|  
bb|---------------------------------------------------------------|  
gb|----------------------------------------------------------*5---|  
Db|-----------------------------------5-2-0-2-----5-2-0-2----*5---|  
Ab|-----------------------------------5-2-0-2-----5-2-0-2----*5---|  
Db|-5-2-0-2-0-2-5-2-0-2-0-2-3-2-0-2---5-2-0-2-----5-2-0-2---------|  
 
2ndChorus  
   day                 I   see      clearly                   every-  
gtr1  
eb|---------------------------------------------------------------|  
bb|-------------------------------------------8---8-8-8-8-8-7-7-7-7|  
gb|-------------------------------------------7---7-7-7-7-7-7-7-7-7|  
Db|-2-2-2-2-0-2---------2-----4-4---4-5-------5---5-5-5-5-5-5-7-7-7|  
Ab|-2-2-2-2-0-2---------2-----4-4---4-5-------5---5-5-5-5-5-5-5---5|  
Db|-2-2-2-2-0-2---------2-----4-4---4-5-------5---5---------------|  
 
 
   thing           has come   to    life                   A bitter  
 
eb|---------------------------------------------------------------|  
bb|-7-------------------------------------------------------------|  
gb|-7---------7---------------7---7-7-5-5---7---9-1111--12-121414-|  
Db|-7-0-----0-x-------0-0-0-0-x---x-x-x-x---x---x-x-x---x--x-x-x-0|  
Ab|-5-0-----0-5-------0-0-0-0-5---5-5-3-3---5---7-9-9---10-1012120|  
Db|---0-----0---------0-0-0-0------------------------------------0|  
 
 
    place               and   a     broken     dream     And we'll  
                                                        w/bar(trem flutter)  
eb|---------------------------------------------------------------|  
bb|---------------------------------------------------------------|  
gb|---------------------------------------------7-7-----*5----~~~~|  
Db|-0-2-2-2-0-2---------2-----4-4---4-5---------5-5---5-----------|  
Ab|-0-2-2-2-0-2---------2-----4-4---4-5---------5-5---5-----------|  
Db|-0-2-2-2-0-2---------2-----4-4---4-5---------5-5---5-----------|  
                                                             \-.5/  
 
    leave          it    all      behind                   On this  
 
eb|---------------------------------------------------------------|  
bb|---------------------------------------------------------------|  
gb|~~~--------7-----7---------9\7-7\5-5-5---7---9-1111121212141414|  
Db|---0-0---0-x-----x-0-0-0-0-x---x---x-x---x---x-x-x-x-x-x-x-x-x-|  
Ab|---0-0---0-5-----5-0-0-0-0-7\5-5\3-3-3---5---7-9-9-101010121212|  
Db|---0-0---0---------0-0-0-0-------------------------------------|  
 
 
     day                it's   so    real    to me          Every-  
                                                    wah  
eb|---------------------------------------------------------------|  
bb|--------------------------------------------------???????????--|  
gb|--------------------------------------------------???????????--|  
Db|---2-2-2-0-2---------2-----4-4---4-5-5---5-5------???????????--|  
Ab|---2-2-2-0-2---------2-----4-4---4-5-5---5-5------???????????--|  
Db|---2-2-2-0-2---------2-----4-4---4-5-5---5-5-------------------|  
 
 
   thing        has    come  to   life                     Another  
 
eb|----------------------------------------------------------------|  
bb|----------------------------------------------------------------|  
gb|-----------7-7-7-7---------7------5---7-----9---11111212141414--|  
Db|---0-0-----x-x-x-x-0-0-0-0-x------x---x-----x---x-x---x-x-x-x-0-|  
Ab|---0-0-----5-5-5-5-0-0-0-0-5--0-0-3---5-----7---9-9-10101212120-|  
Db|---0-0-------------0-0-0-0----0-0-----------------------------0-|  
 
 
    chance            to  chase  a  dream                    Antoher  
                                                     PS  
eb|---------------------------------------------------------------|  
bb|---------------------------------------------------------------|  
gb|---------------------------------------------------------------|  
Db|-0-2-2---0-2---------2-----4-4---4-5-----5-5-5---5-------------|  
Ab|-0-2-2---0-2---------2-----4-4---4-5-----5-5-5---5--------\\\\\|  
Db|-0-2-2---0-2---------2-----4-4---4-5-----5-5-5---5-\\\\\\\\\\\\|  
 
 
   chance      to feel        chance              to feel  
 
eb|---------------------------------------------------------------|  
bb|---------------------------------------------------------------|  
gb|-----------7---------------9-7-----5-5---7---9-11111212141414--|  
Db|---0-0---0-x-------0-0-0-0-x-x-0-0-x-x---x---x-x-x-x-x-x-x-x---|  
Ab|---0-0---0-5-------0-0-0-0-7-5-0-0-3-3---5---7-9-9-1010121212-0|  
Db|---0-0---0---------0-0-0-0------------------------------------0|  
 
 
Bridge  
     Alive.......................................................  
gtr1  PM.....................................................|  
eb|---------------------------------------------------------------|  
bb|---------------------------------------------------------------|  
gb|---------------------------------------------------------------|  
Db|-----------------------------------------------------------3-3-3  
Ab|-0-------------------------------------------------------------|  
Db|-0-0-2-2-2-4-2---2-0-2-2-2-5-2---2-0-2-2-2-3-2---2-0-3-3-3-----|  
 
 
   ..........................................  
     PM.........................................|  
eb|----------------------------------------------------------------|  
bb|----------------------------------------------------------------|  
gb|----------------------------------------------------------------|  
Db|-3--------------------------------------------------------------|  
Ab|-------------------------------------------------2-5-2-3-0-2----|  
Db|---0-2-2-2-4-2---2-0-2-2-2-5-2---2-0-2-2-2-3-2---------------2-5|  
 
 
          oh........................  
        PM..........|    PM.........|   PM..................|  
eb|---------------------------------------------------------------|  
bb|---------------------------------------------------------------|  
gb|---------------------------------------------------------------|  
Db|-----------------------------------------------------------3-3-3  
Ab|---------------------------------------------------------------|  
Db|-3-0h2-2-2-4-2---2-0h2-2-2-5-2---2-0h2-2-2-3-2---2-3-3-3-3-----|  
 
        PM..........|   PM..........|   PM..........|  
eb|---------------------------------------------------------------|  
bb|---------------------------------------------------------------|  
gb|---------------------------------------------------------------|  
Db|-3-------------------------------------------------2320--------|  
Ab|-------------------------------------------------------5-2-3-0-|  
Db|---0h2-2-2-4-2---2-0h2-2-2-5-2---2-0h2-2-2-3-2---2-------------|  
 
 
      Fear           will            kill          me  
        PM..........|   PM..........|   PM.................|  
eb|---------------------------------------------------------------|  
bb|---------------------------------------------------------------|  
gb|---------------------------------------------------------------|  
Db|-----------------------------------------------------------3-3-3  
Ab2320------------------------------------------------------------|  
Db|---0h2-2-2-4-2---2-0h2-2-2-5-2---2-0h2-2-2-3-2---2-3-3-3-3-----|  
 
 
       all               I           could          be  
        PM..........|   PM..........|   PM..........|  
eb|----------------------------------------------------------------|  
bb|----------------------------------------------------------------|  
gb|----------------------------------------------------------------|  
Db|-3--------------------------------------------------------------|  
Ab|-------------------------------------------------2-5-2-3-0-2----|  
Db|---0h2-2-2-4-2---2-0h2-2-2-5-2---2-0h2-2-2-3-2---------------2-5|  
 
 
      lift            these          sorrrrrrrrrrrrows  
        PM..........|   PM..........|   PM..................|  
eb|---------------------------------------------------------------|  
bb|---------------------------------------------------------------|  
gb|---------------------------------------------------------------|  
Db|-----------------------------------------------------------3-3-3  
Ab|---------------------------------------------------------------|  
Db|-3-0h2-2-2-4-2---2-0h2-2-2-5-2---2-0h2-2-2-3-2---2-3-3-3-3-----|  
 
 
      let            me              breathe  
        PM..........|   PM..........|  
eb|---------------------------------------------------------------|  
bb|---------------------------------------------------------------|  
gb|---------------------------------------------------------------|  
Db|-3-------------------------------------------------------------|  
Ab|---------------------------------------------------------------|  
Db|---0h2-2-2-5-2---2-0h2-2-2-3-2---2-0h2-2-0-2-5-2-0-2-----------|  
 
 
      could          you          set            me  
 
eb|---------------------------------------------------------------|  
bb|---------------------------------------------------------------|  
gb|---------------------------------------------------------------|  
Db|---0h2---2-3p2---2-0h2---2-5p2---2-0h2---2-3p2-------------3-3-3  
Ab|---0h2---2-3p2---2-0h2---2-5p2---2-0h2---2-3p2-----------------|  
Db|---0h2---2-3p2---2-0h2---2-5p2---2-0h2---2-3p2---2-3-3-3-3-----|  
 
 
        freeeeeeeeeeeeeeeeeeeeeeeeeeeeeeeeee.....  
 
eb|---------------------------------------------------------------|  
bb|---------------------------------------------------------------|  
gb|---------------------------------------------------------------|  
Db|-3-0h2---2-4p2---2-0h2---2-5p2---2-0h2---2-3p2-----2320--------|  
Ab|---0h2---2-4p2---2-0h2---2-5p2---2-0h2---2-3p2-----------2-3-0-|  
Db|---0h2---2-4p2---2-0h2---2-5p2---2-0h2---2-3p2---2-------------|  
 
 
       could        you            set           me ...  
 
eb|---------------------------------------------------------------|  
bb|---------------------------------------------------------------|  
gb|---------------------------------------------------------------|  
Db|---0h2---2-3p2---2-0h2---2-5p2---2-0h2---2-3p2-------------3-3-3  
Ab23200h2---2-3p2---2-0h2---2-5p2---2-0h2---2-3p2-----------------|  
Db|---0h2---2-3p2---2-0h2---2-5p2---2-0h2---2-3p2---2-3-3-3-3-----|  
 
 
       freeeeeeeeeeeeeeeeeeeeeeeeeeeeeeeeeeeee....        on this  
 
eb|---------------------------------------------------------------|  
bb|---------------------------------------------------------------|  
gb|---------------------------------------------------------------|  
Db|-3-0h2---2-3p2---2-0h2---2-5p2---2-0h2---2-4p2---0h2-----------|  
Ab|---0h2---2-3p2---2-0h2---2-5p2---2-0h2---2-4p2---0h2-----------|  
Db|---0h2---2-3p2---2-0h2---2-5p2---2-0h2---2-4p2---0h2-----------|  
 
 
LastChorus  
    day                I see clearly                         every-  
gtr1                                                     w/bar(trem flutter)  
eb|---------------------------------------------------------------|  
bb|---------------------------------------------------------------|  
gb|---------------------------------------------7-7-----*5----~~~~|  
Db|---2-2-2-0-2---------2-----4-4---4-5-------5-5-5---5-----------|  
Ab|---2-2-2-0-2---------2-----4-4---4-5-------5-5-5---5-----------|  
Db|---2-2-2-0-2---------2-----4-4---4-5-------5-5-5---5-----------|  
                                                             \-.5/  
 
   thing       has     come     to life                    Bitter  
 
eb|---------------------------------------------------------------|  
bb|---------------------------------------------------------------|  
gb|-----------7---7-7---------7-7-----5-5---7-9---11----1212141414|  
Db|---0-0---0-x---x-x-0-0-0-0-x-x-----x-x---x-x---x-----x-x-x-x-x-0  
Ab|---0-0---0-5---5-5-0-0-0-0-5-5-0-0-3-3---5-7---9-----10101212120  
Db|---0-0---0---------0-0-0-0-----0-0-----------------------------0  
 
 
   place              and    a     broken     dream      and we'll  
 
eb|---------------------------------------------------------------|  
bb|---------------------------------------------------------------|  
gb|-------------------------------------------7-----7-7-4754---532|  
Db|-0-2-2-2-0-2---------2-----4-4---4-5-------5-----5-5-----754---|  
Ab|-0-2-2-2-0-2---------2-----4-4---4-5-------5-----5-5-----------|  
Db|-0-2-2-2-0-2---------2-----4-4---4-5-------5-----5-5-----------|  
 
 
      leave      it      all      behind                    On this  
 
eb|----------------------------------------------------------------|  
bb|----------------------------------------------------------------|  
gb|-----------7-7---7---------9\7-7\5-5-5---7---9-1111--1212141414-|  
Db|5320-0-----x-x---x-0-0-0-0-x---x---x-x---x---x-x-x---x-x-x-x-x-0|  
Ab|---0-0-----5-5---5-0-0-0-0-7\5-5\3-3-3-0-5---7-9-9---10101212120|  
Db|---0-0-------------0-0-0-0-------------0-----------------------0|  
 
 
     day              it's   so     real   to   me          every-  
                                                       PS  
eb|---------------------------------------------------------------|  
bb|---------------------------------------------------------------|  
gb|-------------------------------------------------7-7-----------|  
Db|-0-2-2---0-2---------2-----4-4---4-5-------5-----5-5-----------|  
Ab|-0-2-2---0-2---------2-----4-4---4-5-------5-----5-5-\\\\\\\\\\|  
Db|-0-2-2---0-2---------2-----4-4---4-5-------5-----5-5-\\\\\\\\\\|  
 
 
    thing      has      come     to life                    Another  
 
eb|---------------------------------------------------------------|  
bb|---------------------------------------------------------------|  
gb|-----------7---7-7---------7-7-7-7-5-5---7---9-1111--12--141414|  
Db|---0---0---x---x-x-0-0-0-0-x-x-x-x-x-x---x---x-x-x---x---x-x-x-0|  
Ab|\\-0---0---5---5-5-0-0-0-0-5-5-5-5-3-3---5---7-9-9---10--1212120|  
Db|\\-0---0-----------0-0-0-0-------------------------------------0|  
 
 
     chance              to       chase    a    dream       Another  
                                                         w/ bar  
eb|---------------------------------------------------------------|  
bb|---------------------------------------------------------------|  
gb|---------------------------------------------7-7----*5~~~~~~~~~|  
Db|-0-2-2-2-0-2---------2-----4-4---4-5-------5-5-5---5-----------|  
Ab|-0-2-2-2-0-2---------2-----4-4---4-5-------5-5-5---5-----------|  
Db|-0-2-2-2-0-2---------2-----4-4---4-5-------5-5-5---5-----------|  
                                                        \-0.5___\\  
 
    chance     to   feel              chance     to      feel  
 
eb|---------------------------------------------------------------|  
bb|---------------------------------------------------------------|  
gb|-----------7-7-7-7---------9\7-7\5-5-5---7---9-1111--1212141414|  
Db|~~-0-----0-x-x-x-x-0---0-0-x---x---x-x---x---x-x-x---x-x-x-x-x-|  
Ab|---0-----0-5-5-5-5-0---0-0-7\5-5\3-3-3-0-5---7-9-9---1010121212|  
Db|---0-----0---------0---0-0-------------0-----------------------|  
 
 
Outro  
     alive..................................................  
gtr1                                                 PM      PM  
eb|---------------------------------------------------------------|  
bb|---------------------------------------------------------------|  
gb|---------------------------------------------------5-5-----5-5-|  
Db|---2---2-2-3p2-----0h2-2-2-5p2-----0h2-2-2-3p2-----3-3-----3-3-|  
Ab|---2---2-2-3p2-----0h2-2-2-5p2-----0h2-2-2-3p2-----3-3-----3-3-|  
Db|---2---2-2-3p2-----0h2-2-2-5p2-----0h2-2-2-3p2-----3-3-----3-3-|  
 
 
    .............................  
                                                    PM      PM  
eb|---------------------------------------------------------------|  
bb|---------------------------------------------------------------|  
gb|---------------------------------------------------5-5-----5-5-|  
Db|-2-0h2---2-3p2-----0h2---2-5p2-----0h2---2-3p2-----3-3-----3-3-|  
Ab|-2-0h2---2-3p2-----0h2---2-5p2-----0h2---2-3p2-----3-3-----3-3-|  
Db|-2-0h2---2-3p2-----0h2---2-5p2-----0h2---2-3p2-----3-3-----3-3-|  
 
                                                    PM      PM  
eb|---------------------------------------------------------------|  
bb|---------------------------------------------------------------|  
gb|---------------------------------------------------5-5-----5-5-|  
Db|---0---2---3---2---0---2---3---2---0---2---3---2---3-3-----3-3-|  
Ab|---0---2---3---2---0---2---3---2---0---2---3---2---3-3-----3-3-|  
Db|---0---2---3---2---0---2---3---2---0---2---3---2---3-3-----3-3-|  
 
 
eb|---------------------------------------------------------------|  
bb|---------------------------------------------------------------|  
gb|---------------------------------------------------------------|  
Db|---0---2---3---2---0---2---3---2---0---2---3---2-0-2-5---5-2-3-|  
Ab|---0---2---3---2---0---2---3---2---0---2---3---2-0-2-5---5-2-3-|  
Db|---0---2---3---2---0---2---3---2---0---2---3---2-0-2-5---5-2-3-|  
 
 
eb|-----------------------|  
bb|-------------------5-5-|  
gb|-------------------4-4-|  
Db|-3-2-5---5-2-3---0-2-2-|  
Ab|-3-2-5---5-2-3---0-2-2-|  
Db|-3-2-5---5-3-3---0-2-2-|  
 
 
| /  slide up  
| \  slide down  
| h  hammer-on  
| p  pull-off  
| ~  vibrato  
| * harmonic  
| x  Mute note  
| PH pinch harmonic  
| T tap harmonic  
| PS pick scratch  
 
 
_______________________________________________________ 
Contribuição: Valter tomaz([email protected]) 
 
less
plus
Add to Songbook Print Version How to play lesson Submit videolesson
Click the best TAGS for this song:
None of them
Contributor: Begudenn Correct

If you can not find the chords or tabs you want, look at our partner E-chords. If you are a premium member, you have total access to our video lessons.

If you find a wrong Bad To Me from Alter Bridge, click the correct button above.

login/signup
my songbooks
my recent views
my submits