Alter Bridge

Watch Your Words tab

Alter Bridge

Album:One Day Remains

Year:2004

tools Ultimate Tabs

Start AutoScroll Font Size Down Font Size Up

Find us on Facebook

chords
tabs
bass
ukulele
keyboards
drums
flute
harmonica
guitar pro video
Ultimate-Tabs

Watch Your Words

 
Intro 
 
gtr1 
eb|-----------------------------------------------------------------| 
bb|-----------------------------------------------------------------| 
gb|-----------------------------------------------------------------| 
Db|-------------------------------------131213------8-10-8----------| 
Ab|-----6-5-6-------8-10-6--5-------------------------------8-10-6--| 
Db|-0-----------0---------------0---0-----------0-------------------| 
 
 
gtr1                                                           PH.| 
eb|----------------------------------------------------------------:| 
bb|----------------------------------------------------------------:| 
gb|----------------------------------------------------------------:| 
Db|-------------------------------------131213------8-10-8---------:| 
Ab|-----6-5-6-------8-10-6--5-------------------------------7-8-4~~:| 
Db|-0-----------0---------------0---0-----------0------------------:| 
play twice (2nd time louder) 
 
 
gtr1       PM........|     PM..|           PM........|     PM..| 
eb|-----------------------------------------------------------------| 
bb|-----------------------------------------------------------------| 
gb|-----------------------------------------------------------------| 
Db|-0-------x---0-0-0---6---0-0-5-6-0-------x---0-0-0---6---0-0-5-6-| 
Ab|-0-------x---0-0-0---6---0-0-5-6-0-------x---0-0-0---6---0-0-5-6-| 
Db|-0-------x---0-0-0---6---0-0-5-6-0-------x---0-0-0---6---0-0-5-6-| 
 
 
gtr1           PM..|           PM..| 
eb|------------------------------------------------| 
bb|------------------------------------------------| 
gb|------------------------------------------------| 
Db|-1-------0-0-0-0-5-----5-0-0-0-0-12----121210---| 
Ab|-1-------0-0-0-0-5-----5-0-0-0-0-8-----8-8-8----| 
Db|-1-------0-0-0-0-5-----5-0-0-0-0-8-----8-8-8----| 
 
 
gtr1                                                           PH..| 
eb|-----------------------------------------------------------------| 
bb|-----------------------------------------------------------------| 
gb|-----------------------------------------------------------------| 
Db|-------------------------------------131213------8-10-8----------| 
Ab|-----6-5-6-------8-10-6--5-------------------------------7-8-4~~-| 
Db|-0-----------0---------------0---0-----------0-------------------| 
 
 
verse 
gtr1       PM........|     PM..|            PM.......|     PM..| 
eb|-----------------------------------------------------------------| 
bb|-----------------------------------------------------------------| 
gb|-----------------------------------------------------------------| 
Db|-0-------x---0-0-0---6---0-0-5-6-0-------x---0-0-0---6---0-0-5-6-| 
Ab|-0-------x---0-0-0---6---0-0-5-6-0-------x---0-0-0---6---0-0-5-6-| 
Db|-0-------x---0-0-0---6---0-0-5-6-0-------x---0-0-0---6---0-0-5-6-| 
 
 
gtr1           PM..|           PM..| 
eb|------------------------------------------------| 
bb|------------------------------------------------| 
gb|------------------------------------------------| 
Db|-1-------0-0-0-0-5-----5-0-0-0-0-12----121210---| 
Ab|-1-------0-0-0-0-5-----5-0-0-0-0-8-----8-8-8----| 
Db|-1-------0-0-0-0-5-----5-0-0-0-0-8-----8-8-8----| 
 
 
gtr1 
eb|-----------------------------------------------------------------| 
bb|-----------------------------------------------------------------| 
gb|-----------------------------------------------------------------| 
Db|-------------------------------------131213------8-10-8----------| 
Ab|-----6-5-6-------8-10-6--5-------------------------------7-8-4~~-| 
Db|-0-----------0---------------0---0-----------0-------------------| 
 
 
gtr1       PM........|     PM..|               PM.|        w/bar 
eb|-----------------------------------------------------------------| 
bb|-----------------------------------------------------------------| 
gb|------------------------------------------------*5---------------| 
Db|-0-------x---0-0-0---6---0-0-5-6-0-------x---0-0-----------------| 
Ab|-0-------x---0-0-0---6---0-0-5-6-0-------x---0-0-----------------| 
Db|-0-------x---0-0-0---6---0-0-5-6-0-------x---0-0-----------------| 
                                                         \\-0.5___\\ 
 
gtr1           PM..|           PM..| 
eb|------------------------------------------------| 
bb|------------------------------------------------| 
gb|------------------------------------------------| 
Db|-1-------0-0-0-0-5-----5-0-0-0-0-12----121210---| 
Ab|-1-------0-0-0-0-5-----5-0-0-0-0-8-----8-8-8----| 
Db|-1-------0-0-0-0-5-----5-0-0-0-0-8-----8-8-8----| 
 
 
gtr1                                                           PH..| 
eb|-----------------------------------------------------------------| 
bb|-----------------------------------------------------------------| 
gb|-----------------------------------------------------------------| 
Db|-------------------------------------131213------8-10-8----------| 
Ab|-----6-5-6-------8-10-6--5-------------------------------7-8-4~~-| 
Db|-0-----------0---------------0---0-----------0-------------------| 
 
 
prechorus 
gtr2 (clean)          w/bar 
eb|-0-------0-----0-----------------3-------3-----3-3-3-3-------3-3-| 
bb|-10------10----10----------------6-------6-----6-6-5-5-------5-5-| 
gb|-11------11----11----------------5-------5-----5-5-5-5-------5-5-| 
Db|-12------12----12----------------3-------3-----3-3-3-3-------3-3-| 
Ab|-12------12----12----------------3-------3-----3-3-3-3-------3-3-| 
Db|-0-------0-----0-----------------3-------3-----3-3-3-3-------3-3-| 
                        \\\\\\\-7 
 
gtr2 
eb|-3-----3-x-x-0-----------0-0---x-1-----1-x-1-3-------3-3-3/5-5-5-| 
bb|-3-----3-x-x-0-----------0-0-0-x-4-----4-x-4-6-------6-6-6/8-8-8-| 
gb|-5-----5-x-x-4-----------4-4-0-x-3-----3-x-3-5-------5-5-5/7-7-7-| 
Db|-5-----5-x-x-5-----------5-5-0-x-1-----1-x-1-3-------3-3-3/5-5-5-| 
Ab|-3-----3-x-x-5-----------5-5-0-x-1-----1-x-1-3-------3-3-3/5-5-5-| 
Db|-3-----3-x-x-----------------------------------------------------| 
 
 
gtr2 
eb|-0-------0-----0-0-0-0-----------3-------3-----------3---------3-| 
bb|-7-------7-----7-7p5-5-----------6-------6-----6-6-5-5-----6-6-6-| 
gb|-7-------7-----7-7-7-7-----------5-------5-----5-5-5-5-----5-5-5-| 
Db|-7-------7-----7-7-7-7-----------3-------3-----3-3-3-3-----3-3-3-| 
Ab|-0-------0-----0-0-0-0-----------3-------3-----3-3-3-3-----3-3---| 
Db|-0-------0-----0-0-0-0-----------3-------3-----3-3-3-3-----3-3---| 
 
 
gtr2 
eb|-3-----3-x-x-0-------------------1-----1-1/3-3-----------3/5-5-5-| 
bb|-3-----3-x-x-0-------------------4-----4-4/6-6-----------6/8-8-7-| 
gb|-5-----5-x-x-4-------------------3-----3-3/5-5-----------5/7-7-7-| 
Db|-5-----5-x-x-5-------------------1-----1-1/3-3-----------3/5-5-5-| 
Ab|-3-----3-x-x-5-------------------1-----1-1/3-3-----------3/5-5-5-| 
Db|-----------------------------------------------------------------| 
 
 
gtr2 
eb|-0-------------------------------| 
bb|-7-------------------------------| 
gb|-7-------------------------------| 
Db|-7-------------------------------| 
Ab|-0-------------------------------| 
Db|-0-------------------------------| 
gtr1 
eb|---------------------------------| 
bb|---------------------------------| 
gb|------------------------*7*7*5*5-| 
Db|------------------------*7*7*5*5-| 
Ab|------------------------*7*7*5*5-| 
Db|---------------------------------| 
 
 
chorus 
gtr1 
eb|-----------------------------------------------------------------| 
bb|-----------------------------------------------------------------| 
gb|-5-------5-----5-5-5-5-----5-5-5-5-----5-5-5-7-----7-7-7-7---7-7-| 
Db|-3-------3-----3-3-3-3-----3-3-3-5-----5-5-5-5-----5-5-5-5---5-5-| 
Ab|-3-------3-----3-3-3-3-----3-3-3-3-----3-3-3-5-----5-5-5-5---5-5-| 
Db|-3-------3-----3-3-3-3-----3-3-3-------------5-----5-5-5-5---5-5-| 
 
 
gtr1 
eb|-----------------------------------------------------------------| 
bb|-----------------------------------------------------------------| 
gb|-7-----7-7-----------14\10--9-7-5-7-7~~~~----------------5b7b5~~~| 
Db|-0-----0-x---0-0-----x------x-x-x-x-0------0-----7\5-3p0---------| 
Ab|-0-----0-5---0-0-----12\8---7-5-3-5-5~~~~--0---------------------| 
Db|-0-----0-----0-0---------------------------0---------------------| 
 
 
gtr1 
eb|-----------------------------------------------------------------| 
bb|-----------------------------------------------------------------| 
gb|-5-------5-----5-5-5-5-----5-5-5-5-----5-5-5-7-----7-7-7-7-5-----| 
Db|-3-------3-----3-3-3-3-----3-3-3-5-----5-5-5-5-----5-5-5-5-3-----| 
Ab|-3-------3-----3-3-3-3-----3-3-3-3-----3-3-3-5-----5-5-5-5-3-----| 
Db|-3-------3-----3-3-3-3-----3-3-3-------------5-----5-5-5-5-3-----| 
 
 
gtr1 
eb|---------------------------------| 
bb|---------------------------------| 
gb|-7-----7-7---------------8-7-7-7-| 
Db|-0-----0-x-0-0-----0-----x-x-x-x-| 
Ab|-0-----0-5-0-0-----0-----6-5-5-5-| 
Db|-0-----0---0-0-----0-------------| 
 
 
gtr1                                                           PH..| 
eb|-----------------------------------------------------------------| 
bb|-----------------------------------------------------------------| 
gb|-----------------------------------------------------------------| 
Db|-------------------------------------131213------8-10-8----------| 
Ab|-----6-5-6-------8-10-6--5-------------------------------7-8-4~~-| 
Db|-0-----------0---------------0---0-----------0-------------------| 
 
 
verse2 
gtr1       PM........|     PM..|            PM.......|     PM..| 
eb|-----------------------------------------------------------------| 
bb|-----------------------------------------------------------------| 
gb|-----------------------------------------------------------------| 
Db|-0-------x---0-0-0---6---0-0-5-6-0-------x---0-0-0---6---0-0-5-6-| 
Ab|-0-------x---0-0-0---6---0-0-5-6-0-------x---0-0-0---6---0-0-5-6-| 
Db|-0-------x---0-0-0---6---0-0-5-6-0-------x---0-0-0---6---0-0-5-6-| 
 
 
gtr1           PM..|           PM..| 
eb|------------------------------------------------| 
bb|------------------------------------------------| 
gb|------------------------------------------------| 
Db|-1-------0-0-0-0-5-----5-0-0-0-0-12----121210---| 
Ab|-1-------0-0-0-0-5-----5-0-0-0-0-8-----8-8-8----| 
Db|-1-------0-0-0-0-5-----5-0-0-0-0-8-----8-8-8----| 
 
 
gtr1 
eb|-----------------------------------------------------------------| 
bb|-----------------------------------------------------------------| 
gb|-----------------------------------------------------------------| 
Db|-------------------------------------131213------8-10-8----------| 
Ab|-----6-5-6-------8-10-6--5-------------------------------7-8-4~~-| 
Db|-0-----------0---------------0---0-----------0-------------------| 
 
 
gtr1       PM........|     PM..|            PM....|        w/bar 
eb|-----------------------------------------------------------------| 
bb|-----------------------------------------------------------------| 
gb|------------------------------------------------*5---------------| 
Db|-0-------x---0-0-0---6---0-0-5-6-0-------x---0-0-----------------| 
Ab|-0-------x---0-0-0---6---0-0-5-6-0-------x---0-0-----------------| 
Db|-0-------x---0-0-0---6---0-0-5-6-0-------x---0-0-----------------| 
                                                         \\-0.5___\\ 
 
gtr1           PM..|           PM..| 
eb|------------------------------------------------| 
bb|------------------------------------------------| 
gb|------------------------------------------------| 
Db|-1-------0-0-0-0-5-----5-0-0-0-0-12----121210---| 
Ab|-1-------0-0-0-0-5-----5-0-0-0-0-8-----8-8-8----| 
Db|-1-------0-0-0-0-5-----5-0-0-0-0-8-----8-8-8----| 
 
 
gtr1 
eb|-----------------------------------------------------------------| 
bb|-----------------------------------------------------------------| 
gb|-----------------------------------------------------------------| 
Db|-------------------------------------131213------8-10-8----------| 
Ab|-----6-5-6-------8-10-6--5-------------------------------7-8-4~~-| 
Db|-0-----------0---------------0---0-----------0-------------------| 
 
 
prechorus 
gtr2 (clean)          w/bar 
eb|-0-------0-----0-----------------3-------3-----3-3-3-3-------3-3-| 
bb|-10------10----10----------------6-------6-----6-6-5-5-------5-5-| 
gb|-11------11----11----------------5-------5-----5-5-5-5-------5-5-| 
Db|-12------12----12----------------3-------3-----3-3-3-3-------3-3-| 
Ab|-12------12----12----------------3-------3-----3-3-3-3-------3-3-| 
Db|-0-------0-----0-----------------3-------3-----3-3-3-3-------3-3-| 
                        \\\\\\\-7//// 
 
gtr2 
eb|-3-----3-x-x-0-----------0-0---x-1-----1-x-1-3-------3-3-3/5-5-5-| 
bb|-3-----3-x-x-0-----------0-0-0-x-4-----4-x-4-6-------6-6-6/8-8-8-| 
gb|-5-----5-x-x-4-----------4-4-0-x-3-----3-x-3-5-------5-5-5/7-7-7-| 
Db|-5-----5-x-x-5-----------5-5-0-x-1-----1-x-1-3-------3-3-3/5-5-5-| 
Ab|-3-----3-x-x-5-----------5-5-0-x-1-----1-x-1-3-------3-3-3/5-5-5-| 
Db|-3-----3-x-x-----------------------------------------------------| 
 
 
gtr2 
eb|-0-------0-----0-0-0-0-----------3-------3-----------3---------3-| 
bb|-7-------7-----7-7p5-5-----------6-------6-----6-6-5-5-----6-6-6-| 
gb|-7-------7-----7-7-7-7-----------5-------5-----5-5-5-5-----5-5-5-| 
Db|-7-------7-----7-7-7-7-----------3-------3-----3-3-3-3-----3-3-3-| 
Ab|-0-------0-----0-0-0-0-----------3-------3-----3-3-3-3-----3-3---| 
Db|-0-------0-----0-0-0-0-----------3-------3-----3-3-3-3-----3-3---| 
gtr1       (w/bar for gtr1) 
eb|-----------------------------------------------------------------| 
bb|-----------------------------------------------------------------| 
gb|-----------------------------------------------------------------| 
Db|-----------------------------------------------------------------| 
Ab|-0---------------------------------------------------------------| 
Db|-0-------------------------------3b5b3~~~~~~~~~~-----------------| 
            \\\\\\\\-7    ////// 
 
gtr2 
eb|-3-----3-x-x-0-------------------1-----1-1/3-3-----------3/5-5-5-| 
bb|-3-----3-x-x-0-------------------4-----4-4/6-6-----------6/8-8-7-| 
gb|-5-----5-x-x-4-------------------3-----3-3/5-5-----------5/7-7-7-| 
Db|-5-----5-x-x-5-------------------1-----1-1/3-3-----------3/5-5-5-| 
Ab|-3-----3-x-x-5-------------------1-----1-1/3-3-----------3/5-5-5-| 
Db|-----------------------------------------------------------------| 
gtr1 
eb|-----------------------------------------------------------------| 
bb|-----------------------------------------------------------------| 
gb|-----------------------------------------------------------------| 
Db|-----------------------------------------------------------------| 
Ab|-3----b5b3p0-2~~~~~~~~~~~~~~-----1-------------------------------| 
Db|---------------------------------------------3-------------------| 
 
gtr2 
eb|-0-------------------------------| 
bb|-7-------------------------------| 
gb|-7-------------------------------| 
Db|-7-------------------------------| 
Ab|-0-------------------------------| 
Db|-0-------------------------------| 
gtr1 
eb|---------------------------------| 
bb|---------------------------------| 
gb|---------------------------------| 
Db|---------------------------------| 
Ab|-0-------------------------------| 
Db|-0----------------------*2.8-*2.8| 
 
 
chorus 
gtr1 
eb|-----------------------------------------------------------------| 
bb|-----------------------------------------------------------------| 
gb|-5-------5-----5-5-5-5-----5-5-5-5-----5-5-5-7-----7-7-7-7---7-7-| 
Db|-3-------3-----3-3-3-3-----3-3-3-5-----5-5-5-5-----5-5-5-5---5-5-| 
Ab|-3-------3-----3-3-3-3-----3-3-3-3-----3-3-3-5-----5-5-5-5---5-5-| 
Db|-3-------3-----3-3-3-3-----3-3-3-------------5-----5-5-5-5---5-5-| 
 
 
gtr1                                                        PH..| 
eb|-----------------------------------------------------------------| 
bb|----------------------------------------------------------6b8----| 
gb|---------8-8-8-8---------7b8-7b8-----------8\7-7-7---5750-----5p2| 
Db|-0-----0-x-x-x-x---0---0-x---x-----0-0-0-0-x---x-x---------------| 
Ab|-0-----0-6-6-6-6---0---0-5b6-5b6---0-0-0-0-6\5-5-5---------------| 
Db|-0-----0-----------0---0-----------0-0-0-0-----------------------| 
 
gtr1 
eb|-----------------------------------------------------------------| 
bb|-----------------------------------------------------------------| 
gb|-5-------5-----5-5-5-5-----5-5-5-5-----5-5-5-7-----7-7-7-7-7-7-5-| 
Db|-3-------3-----3-3-3-3-----3-3-3-5-----5-5-5-5-----5-5-5-5-5-5-3-| 
Ab|-3-------3-----3-3-3-3-----3-3-3-3-----3-3-3-5-----5-5-5-5-5-5-3-| 
Db|-3-------3-----3-3-3-3-----3-3-3-------------5-----5-5-5-5-5-5-3-| 
 
 
gtr1 
eb|---------------------------------| 
bb|---------------------------------| 
gb|---------7-7-7-7---------8-7-7-7-| 
Db|-0-----0-x-x-x-x-0---0-0-x-x-x-x-| 
Ab|-0-----0-5-5-5-5-0---0-0-6-5-5-5-| 
Db|-0-----0---------0---0-0---------| 
 
gtr1                                                       PH.....| 
eb|-----------------------------------------------------------------| 
bb|-----------------------------------------------------------------| 
gb|-----------------------------------------------------------------| 
Db|---------------------------7-------------------------------------| 
Ab|-8-5---5---5-8-5---5---5-6---6-5-8-5---5---5-8-5---5---5-6-~~~~~-| 
Db|-----0---0-------0---0---------------0---0-------0---0-----------| 
 
 
gtr1                                                       PH.....| 
eb|-----------------------------------------------------------------| 
bb|-----------------------------------------------------------------| 
gb|---------------------------------------------5-------------------| 
Db|---------------------------7-------------------7-8---7-----------| 
Ab|-8-5---5---5-8-5---5---5-6---6-5-8-5---5---5-------8---5-6-~~~~--| 
Db|-----0---0-------0---0---------------0---0-----------------------| 
 
gtr1 
eb|-------------------------------------------------| 
bb|-------------------------------------------------| 
gb|-------------------------------------------------| 
Db|-------------------------------------------------| 
Ab|-------5-6-5-------3-5-3-------5-6-5-8-5-5-6-3-5-| 
Db|-0-----------0-----------0-----------------------| 
 
gtr1 
eb|-------------------------------------------------| 
bb|-------------------------------------------------| 
gb|-------------------------------------------------| 
Db|-------------------------------------------------| 
Ab|-------5-6-5-------3-5-3-------5-6-5-8-5-5-6-3-5-| 
Db|-0-----------0-----------0-----------------------| 
 
 
gtr1 
eb|-------------------------------------------------| 
bb|-------------------------------------------------| 
gb|-------7-8-7-------5-7-5-------7-8-7/108-7-8-5-7-| 
Db|-------x-x-x-------x-x-x-------x-x-x-x-x-x-x-x-x-| 
Ab|-------5-6-5-------3-5-3-------5-6-5/8-6-5-6-3-5-| 
Db|-0-----------0-----------0-----------------------| 
 
gtr1                          |__3_| 
eb|-----------------------------------------------------------------| 
bb|-----------------------------------------------------------------| 
gb|-------7-7-7-------7-7-7--8-8-8-8--------7-7-7-----8---7-14121212| 
Db|-------x-x-x-------x-x-x--x-x-x-x--------x-x-x-----x---x-x-x-x-x-| 
Ab|-------5-5-5-------5-5-5--6-6-6-6--------5-5-5-----6---5-12101010| 
Db|-0-----------0-----------0-------0-------------0-----0-----------| 
 
gtr1                       PM..| 
eb|-0-------0-----0-0-0---0-----------------------------------------| 
bb|-x-------x-----x-x-x---x-----------------------------------------| 
gb|-7-------7-----7-7-7---7-----7---5-------5-----5-5-5-5-----5-5-5-| 
Db|-7-------7-----7-7-7---7-----5---3-------3-----3-3-3-3-----3-3-3-| 
Ab|-5-------5-----5-5-5---5-0-0-5---3-------3-----3-3-3-3-----3-3-3-| 
Db|-0-------0-----0-0-0---0-0-0-5---3-------3-----3-3-3-3-----3-3-3-| 
 
gtr1                                       PM..| 
eb|-----------------------------------------------------------------| 
bb|-----------------------------------------------------------------| 
gb|-5----/7\5---4-----4-4-4-4---4-4-3-----3-----5-----5-5-5-5-7-----| 
Db|-x-----------5-----5-5-5-5---5-5-3-----3-----3-----x-x-x-3-5---5-| 
Ab|-3----/5\3p0-2-----2-2-2-2---2-2-1-----1-0-0-3-----3-3-3-3-5---5-| 
Db|-----------------------------------------0-0-3-----------3-5---5-| 
 
gtr1 
eb|-----------------------------------------------------------------| 
bb|-----------------------------------------------------------------| 
gb|---------7-7-------7-7-7-----7---5-------5-----5-5-5-5-----5-5-5-| 
Db|-0-----0-x-x---0-0-0-x-x-0---5---3-------3-----3-3-3-3-----3-x-x-| 
Ab|-0-----0-5-5---0-0-5-5-5-0---5---3-------3-----3-3-3-3-----3-3-3-| 
Db|-0-----0-------0-0-0-----0---5---3-------3-----3-3-3-3-----3-----| 
 
gtr1 
eb|-----------------------------------------------------------------| 
bb|-----------------------------------------------------------------| 
gb|-5----/7\5---4-----4-4-4-4---4-4-3-----3-3-3-5-----5-5-5-5-7-----| 
Db|-------------5-----5-5-5-5---5-5-3-----3-3-3-3-----3-3-3-3-5---5-| 
Ab|-3----/5\3p0-2-----2-2-2-2---2-2-1-----1-1-1-3-----3-3-3-3-5---5-| 
Db|---------------------------------------------3-----3-3-3-3-5---5-| 
 
gtr1 
eb|---------------------------------| 
bb|---------------------------------| 
gb|---------------------------------| 
Db|---------------------------------| 
Ab|-0-0-0-0-0-0-0-0-000-0-0-0-0-0-0-| 
Db|-0-0-0-0-0-0-0-0-000-0-0-0-0-0-0-| 
 
 
gtr1 
eb|-----------------------------------------------------------------| 
bb|-----------------------------------------------------------------| 
gb|-5-------5-----5-5-5-5-----5-5-5-5-----5-5-5-7-----7-7-7-7---7-7-| 
Db|-3-------3-----3-3-3-3-----3-3-3-5-----5-5-5-5-----5-5-5-5---5-5-| 
Ab|-3-------3-----3-3-3-3-----3-3-3-3-----3-3-3-5-----5-5-5-5---5-5-| 
Db|-3-------3-----3-3-3-3-----3-3-3-------------5-----5-5-5-5---5-5-| 
 
gtr1                                    PM.|           PM..| 
eb|-----------------------------------------------------------------| 
bb|-----------------------------------------------------------------| 
gb|---------8-7-7-7-7-7-8/1010/128-8-7~~----8-7-------------7bbbbb8-| 
Db|-0---0-0-x-x-0-0-x-x-x---x----x-x-x--0-0-8-7---0---------x-------| 
Ab|-0---0-0-6-5-0-0-5-5-6/8-8-/106-6-5~~0---6-5---0-----0-0-5bbbbb6-| 
Db|-0---0-0-----0-0---------------------0---------0-----0-0---------| 
 
gtr1 
eb|-----------------------------------------------------------------| 
bb|-----------------------------------------------------------------| 
gb|-5-------5-----5-5-5-5-----5-5-5-5-----5-5-5-7-----7-7-7-7---7-7-| 
Db|-3-------3-----3-3-3-3-----3-3-3-5-----5-5-5-5-----5-5-5-5---0-0-| 
Ab|-3-------3-----3-3-3-3-----3-3-3-3-----3-3-3-5-----5-5-5-5---0-0-| 
Db|-3-------3-----3-3-3-3-----3-3-3-------------5-----5-5-5-5---0-0-| 
 
gtr1                                                  PS........ 
eb|-----------------------------------------------------------------| 
bb|-----------------------------------------------------------------| 
gb|-----------------------------------------------------------------| 
Db|---------------------------7-------------------------------------| 
Ab|-8-5---5---5-8-5---5---5-6---6-5-8-5---5---5-6-5---5\\\\\\\\\\\\-| 
Db|-----0---0-------0---0---------------0---0-------0--\\\\\\\\\\\\\| 
 
gtr1 
eb|-----------------------------------------------------------------| 
bb|-----------------------------------------------------------------| 
gb|-5---5-555-555-555-555-555-555-555-555-555-557-777-777-777---7-7-| 
Db|-3---3-333-333-333-333-333-333-335-555-555-555-555-555-555---5-5-| 
Ab|-3---3-333-333-333-333-333-333-333-333-333-335-555-555-555---5-5-| 
Db|-3---3-333-333-333-333-333-333-333-----------5-555-555-555---5-5-| 
 
 
gtr1 
eb|-------------------------------------------------| 
bb|-------------------------------------------------| 
gb|-------------------------------------------------| 
Db|-------------------------------------------------| 
Ab|-------5-6-5-------3-5-3-------5-6-5-8-5-5-6-3-5-| 
Db|-0-----------0-----------0-----------------------| 
 
gtr1 
eb|-------------------------------------------------| 
bb|-------------------------------------------------| 
gb|-------------------------------------------------| 
Db|-------------------------------------------------| 
Ab|-------5-6-5-------3-5-3-------5-6-5-8-5-5-6-3-5-| 
Db|-0-----------0-----------0-----------------------| 
 
 
gtr1 
eb|-------------------------------------------------| 
bb|-------------------------------------------------| 
gb|-------7-8-7-------5-7-5-------7-8-7/108-7-8-5-7-| 
Db|-------x-x-x-------x-x-x-------x-x-x-x-x-x-x-x-x-| 
Ab|-------5-6-5-------3-5-3-------5-6-5/8-6-5-6-3-5-| 
Db|-0-----------0-----------0-----------------------| 
 
gtr1                          |__3_|                          PH...| 
eb|-----------------------------------------------------------------| 
bb|-----------------------------------------------------------------| 
gb|-------7-7-7-------7-7-7--8-8-8-8--------7-7-7-----8-----1412~~~~| 
Db|-------x-x-x-------x-x-x--x-x-x-x--------x-x-x-----x-----x-x-----| 
Ab|-------5-5-5-------5-5-5--6-6-6-6--------5-5-5-----6-----1210~~~~| 
Db|-0-----------0-----------0-------0-------------0-----0-0---------| 
 
gtr1 
eb|---------| 
bb|---------| 
gb|-7\\\2---| 
Db|-7\\\0---| 
Ab|-0-------| 
Db|-0-------| 
 
| /  slide up 
| \  slide down 
| h  hammer-on 
| p  pull-off 
| ~  vibrato 
| * harmonic 
| PM  Mute note 
| PH pinch harmonic 
| PS pick scrape 
 
 
_______________________________________________________ 
Contribuição: Dudlei Dangio Landim([email protected]) 
 
less
plus
Add to Songbook Print Version How to play lesson Submit videolesson
Click the best TAGS for this song:
None of them
Contributor: jpokElg_ Correct

If you can not find the chords or tabs you want, look at our partner E-chords. If you are a premium member, you have total access to our video lessons.

If you find a wrong Bad To Me from Alter Bridge, click the correct button above.

login/signup
my songbooks
my recent views
my submits