Ambz

This House tab

Ambz

chords
tabs
bass
ukulele
keyboards
drums
flute
harmonica
guitar pro
video
Ultimate-Tabs

This House

Solo 1
e|-13-15-15b15h13-12-13-13-13-12-10-8h10-10/12/10-12-10-10-10-10-8--|
B|------------------------------------------------------------------|
G|------------------------------------------------------------------|
D|------------------------------------------------------------------|
A|------------------------------------------------------------------|
E|------------------------------------------------------------------|

e|----------------------------------------------------------|
B|11-11/10-10-10-8-10-8-10-11-10-6-8b8-8-6-8h6-8h6----------|
G|----------------------------------------------------------|
D|-----------------------------------------------------7-7--|
A|----------------------------------------------------------|
E|----------------------------------------------------------|


Solo 2
e|---8/10-10--8/10-10-10---10---10-8----------------------------------|
B|---8/10-10--8/10-10-10-10--10-10-10-10-8----------------------------|
G|----------------------------------------10-------10-12b12-10-12-10--|
D|-------------------------------------------10h12--------------------|
A|--------------------------------------------------------------------|
E|--------------------------------------------------------------------|

e|----------------------------------------14-14-14-14-14-14/10--|
B|----------------------------------------14-14-14-14-14-14/10--|
G|------------10--10-12-10-12/14/12-10-12-----------------------|
D|12-12-10-12---12----------------------------------------------|
A|--------------------------------------------------------------|
E|--------------------------------------------------------------|



************************************

| h  Hammer-on
| b  Bend
| /  Slide up

************************************
less
plus
Add to Songbook Print Version How to play lesson Submit videolesson
Click the best TAGS for this song:
None of them
Contributor: Anonymous Correct

If you can not find the chords or tabs you want, look at our partner E-chords. If you are a premium member, you have total access to our video lessons.

If you find a wrong Bad To Me from Ambz, click the correct button above.

login/signup
my songbooks
my recent views
my submits