tools Ultimate Tabs

Start AutoScroll Font Size Down Font Size Up

Find us on Facebook

chords
tabs
bass
ukulele
keyboards
drums
flute
harmonica
guitar pro
video
Ultimate-Tabs

Tints

Intro  (0:00)
G|--------------------------------|
D|--------------------------------|
A|--------------------------------|  (x7)
E|--------------------------------|
B|--------------------------------|

G|--------------------------------|
D|--------------------------------|
A|----------------------------2-3-|
E|--------------------------4-----|
B|--------------------------------|

Verse 1  (0:17)
G|--------------------------------|--------------------------------|
D|--------------------------------|--------------------------------|
A|4-2---------4-------------------|--------------------------------|
E|----4-----------------x-2---4---|5-----5---------------------0-1-|
B|------2---------2---------------|--------------------------------|

G|--------------------------------|--------------------------------|
D|--------------4-------4---------|--------------------------------|
A|--------------------------------|------------------------5-5-5-5-|
E|2-----2---------2-------2-2-3-3-|4-----4-------------------------|
B|--------------------------------|--------------0-3-3-3-3---------|

G|--------------------------------|--------------------------------|
D|--------------4-----------------|--------------------------------|
A|--------------------------------|--------------------------------|
E|------------------------2---4---|5-----5-------5-x-----------0-1-|
B|2-----2---------2---2-----------|--------------------------------|

G|--------------------------------|--------------------------------|
D|--------------------------------|--------------------------------|
A|------------------------2---2-3-|4---------------------------2-3-|
E|2-------2-2-3-4-------4---4-----|--------------------------4-----|
B|------2-------------------------|----2-----2-----2---------------|

G|--------------------------------|--------------------------------|
D|--------------------------------|--------------------------------|
A|4-2---------4-------------------|--------------------------------|
E|----4-----------------x-2---4---|5-----5-------5-x-----------0-1-|
B|------2---------2---------------|--------------------------------|

G|--------------------------------|--------------------------------|
D|--------------4-------4---------|--------------------------------|
A|--------------------------------|------------------------5-5-5-5-|
E|2-----2---------2-------2-2-3-3-|4-----4-------------------------|
B|--------------------------------|--------------0-3-3-3-3---------|

G|--------------------------------|--------------------------------|
D|--------------x-----------------|--------------------------------|
A|--------------------------------|--------------------------------|
E|------------------------2---4---|5-----5-------5-x-----------0-1-|
B|2-----2---------2---2-----------|--------------------------------|

G|--------------------------------|--------------------------------|
D|--------------------------------|--------------------------------|
A|------------------------2---2-3-|4-------------------------------|
E|2-------2-2-3-4-------4---4-----|--------------------------------|
B|------2-------------------------|----2-----2-----2-------------0-|


Chorus  (0:52)
G|--------------------------------|--------------------------------|
D|--------------------------------|--------------------------------|
A|----------------4-7-------------|--------------------------------|
E|------2-5-5---5-------5---3-4-5\|--------------x-5---x-x---x---0-|
B|3-3-----------------------------|--------------------------------|

G|--------------------------------|--------------------------------|
D|--------------------------------|--------------------------------|
A|------2-----2-------------------|--------------------------------|
E|--------2-------0-----2-----4-5-|6-----------7---7-7---7---7-----|
B|--------------------------------|------------------------------0-|

G|--------------------------------|--------------------------------|
D|--------------------------------|--------------------------------|
A|--5-----------------------------|--------------------------------|
E|------2-5-5-----------5---3-4-5\|----------------5---------5---0-|
B|3-------------0-2-3-------------|--------------------------------|

G|--------------------------------|--------------------------------|
D|--------------------------------|--------------------------------|
A|------2-----2-------------------|--------------------------------|
E|--------2-------0-----2-----4-5-|6-------------------------------|
B|--------------------------------|------------------------------0-|

G|--------------------------------|--------------------------------|
D|--------------------------------|--------------------------------|
A|--5-----------------------------|--------------------------------|
E|------2-5-5-----------5---3-4-5\|----------------5---x-x---x---0-|
B|3-------------0-2-3-------------|--------------------------------|

G|--------------------------------|--------------------------------|
D|--------------------------------|--------------------------------|
A|------2-----2-------------------|--------------------------------|
E|--------2-------0-----2-----4-5-|6-----------7---7-7---7---7-----|
B|--------------------------------|------------------------------0-|

G|--------------------------------|--------------------------------|
D|------------4-------------------|--------------------------------|
A|--------5-7---5-----------------|--------------------4-----------|
E|----5---------------------------|5-4-x-x---4---4-7-4---4-7-7---4-|
B|3-7---7---------3---------------|--------------------------------|

G|--------------------------------|--------------------------------|
D|--------------------------------|--------------------------------|
A|--------------------------7-9---|9-9-------5---7-9-9---------2-3-|
E|------------------------------7-|------7-------------------4-----|
B|--------------------------------|--------------------------------|


Verse 2  (1:27)
G|--------------------------------|--------------------------------|
D|--------------------------------|--------------------------------|
A|4-2---------4-------------------|--------------------------------|
E|----4-----------------x-2---4---|5-----5---------------------0-1-|
B|------2---------2---------------|--------------------------------|

G|--------------------------------|--------------------------------|
D|--------------4-------4---------|--------------------------------|
A|--------------------------------|------------------------5-5-5-5-|
E|2-----2---------2-------2-2-3-3-|4-----4-------------------------|
B|--------------------------------|--------------0-3-3-3-3---------|

G|--------------------------------|--------------------------------|
D|--------------x-----------------|--------------------------------|
A|--------------------------------|--------------------------------|
E|------------------------2---4---|5-----5-------5-x-----------0-1-|
B|2-----2---------2---2-----------|--------------------------------|

G|--------------------------------|--------------------------------|
D|--------------------------------|--------------------------------|
A|------------------------2---2-3-|4---------------------------2-3-|
E|2-------2-2-3-4-------4---4-----|--------------------------4-----|
B|------2-------------------------|----2-----2-----2---------------|

G|--------------------------------|--------------------------------|
D|--------------------------------|--------------------------------|
A|4-2---------4-------------------|--------------------------------|
E|----4-----------------x-2---4---|5-----5-------5-x-----------0-1-|
B|------2---------2---------------|--------------------------------|

G|--------------------------------|--------------------------------|
D|--------------4-------4---------|--------------------------------|
A|--------------------------------|------------------------5-5-5-5-|
E|2-----2---------2-------2-2-3-3-|4-----4-------------------------|
B|--------------------------------|--------------0-3-3-3-3---------|

G|--------------------------------|--------------------------------|
D|--------------x-----------------|--------------------------------|
A|--------------------------------|--------------------------------|
E|------------------------2---4---|5-----5-------5-x-----------0-1-|
B|2-----2---------2---2-----------|--------------------------------|

G|--------------------------------|--------------------------------|
D|--------------------------------|--------------------------------|
A|------------------------2---2-3-|4-------------------------------|
E|2-------2-2-3-4-------4---4-----|--------------------------------|
B|------2-------------------------|----2-----2-----2-------------0-|


Chorus  (2:03)
G|--------------------------------|--------------------------------|
D|--------------------------------|--------------------------------|
A|----------------4-7-------------|--------------------------------|
E|------2-5-5---5-------5---3-4-5\|--------------x-5---x-x---x---0-|
B|3-3-----------------------------|--------------------------------|

G|--------------------------------|--------------------------------|
D|--------------------------------|--------------------------------|
A|------2-----2-------------------|--------------------------------|
E|--------2-------0-----2-----4-5-|6-----------7---7-7---7---7-----|
B|--------------------------------|------------------------------0-|

G|--------------------------------|--------------------------------|
D|--------------------------------|--------------------------------|
A|--5-----------------------------|--------------------------------|
E|------2-5-5-----------5---3-4-5\|----------------5---------5---0-|
B|3-------------0-2-3-------------|--------------------------------|

G|--------------------------------|--------------------------------|
D|--------------------------------|--------------------------------|
A|------2-----2-------------------|--------------------------------|
E|--------2-------0-----2-----4-5-|6-------------------------------|
B|--------------------------------|------------------------------0-|

G|--------------------------------|--------------------------------|
D|--------------------------------|--------------------------------|
A|--5-----------------------------|--------------------------------|
E|------2-5-5-----------5---3-4-5\|----------------5---x-x---x---0-|
B|3-------------0-2-3-------------|--------------------------------|

G|--------------------------------|--------------------------------|
D|--------------------------------|--------------------------------|
A|------2-----2-------------------|--------------------------------|
E|--------2-------0-----2-----4-5-|6-----------7---7-7---7---7-----|
B|--------------------------------|------------------------------0-|

G|--------------------------------|--------------------------------|
D|------------4-------------------|--------------------------------|
A|--------5-7---5-----------------|--------------------4-----------|
E|----5---------------------------|5-4-x-x---4---4-7-4---4-7-7---4-|
B|3-7---7---------3---------------|--------------------------------|

G|--------------------------------|--------------------------------|
D|--------------------------------|--------------------------------|
A|--------------------------7-9---|9-9-------5---7-9-9---------2-3-|
E|------------------------------7-|------7-------------------4-----|
B|--------------------------------|--------------------------------|

Verse 3  (2:38)
G|--------------------------------|--------------------------------|
D|--------------------------------|--------------------------------|
A|4-2---------4-------------------|--------------------------------|
E|----4-----------------x-2---4---|5-----5---------------------0-1-|
B|------2---------2---------------|--------------------------------|

G|--------------------------------|--------------------------------|
D|--------------4-------4---------|--------------------------------|
A|--------------------------------|------------------------5-5-5-5-|
E|2-----2---------2-------2-2-3-3-|4-----4-------------------------|
B|--------------------------------|--------------0-3-3-3-3---------|

G|--------------------------------|--------------------------------|
D|--------------x-----------------|--------------------------------|
A|--------------------------------|--------------------------------|
E|------------------------2---4---|5-----5-------5-x-----------0-1-|
B|2-----2---------2---2-----------|--------------------------------|

G|--------------------------------|--------------------------------|
D|--------------------------------|--------------------------------|
A|------------------------2---2-3-|4---------------------------2-3-|
E|2-------2-2-3-4-------4---4-----|--------------------------4-----|
B|------2-------------------------|----2-----2-----2---------------|

G|--------------------------------|--------------------------------|
D|--------------------------------|--------------------------------|
A|4-2---------4-------------------|--------------------------------|
E|----4-----------------x-2---4---|5-----5-------5-x-----------0-1-|
B|------2---------2---------------|--------------------------------|

G|--------------------------------|--------------------------------|
D|--------------4-------4---------|--------------------------------|
A|--------------------------------|------------------------5-5-5-5-|
E|2-----2---------2-------2-2-3-3-|4-----4-------------------------|
B|--------------------------------|--------------0-3-3-3-3---------|

G|--------------------------------|--------------------------------|
D|--------------x-----------------|--------------------------------|
A|--------------------------------|--------------------------------|
E|------------------------2---4---|5-----5-------5-x-----------0-1-|
B|2-----2---------2---2-----------|--------------------------------|

G|--------------------------------|--------------------------------|
D|--------------------------------|--------------------------------|
A|------------------------2---2-3-|4-------------------------------|
E|2-------2-2-3-4-------4---4-----|--------------------------------|
B|------2-------------------------|----2-----2-----2-------------0-|


Chorus  (3:13)
G|--------------------------------|--------------------------------|
D|--------------------------------|--------------------------------|
A|----------------4-7-------------|--------------------------------|
E|------2-5-5---5-------5---3-4-5\|--------------x-5---x-x---x---0-|
B|3-3-----------------------------|--------------------------------|

G|--------------------------------|--------------------------------|
D|--------------------------------|--------------------------------|
A|------2-----2-------------------|--------------------------------|
E|--------2-------0-----2-----4-5-|6-----------7---7-7---7---7-----|
B|--------------------------------|------------------------------0-|

G|--------------------------------|--------------------------------|
D|--------------------------------|--------------------------------|
A|--5-----------------------------|--------------------------------|
E|------2-5-5-----------5---3-4-5\|----------------5---------5---0-|
B|3-------------0-2-3-------------|--------------------------------|

G|--------------------------------|--------------------------------|
D|--------------------------------|--------------------------------|
A|------2-----2-------------------|--------------------------------|
E|--------2-------0-----2-----4-5-|6-------------------------------|
B|--------------------------------|------------------------------0-|

G|--------------------------------|--------------------------------|
D|--------------------------------|--------------------------------|
A|--5-----------------------------|--------------------------------|
E|------2-5-5-----------5---3-4-5\|----------------5---x-x---x---0-|
B|3-------------0-2-3-------------|--------------------------------|

G|--------------------------------|--------------------------------|
D|--------------------------------|--------------------------------|
A|------2-----2-------------------|--------------------------------|
E|--------2-------0-----2-----4-5-|6-----------7---7-7---7---7-----|
B|--------------------------------|------------------------------0-|

G|--------------------------------|--------------------------------|
D|------------4-------------------|--------------------------------|
A|--------5-7---5-----------------|--------------------4-----------|
E|----5---------------------------|5-4-x-x---4---4-7-4---4-7-7---4-|
B|3-7---7---------3---------------|--------------------------------|

G|--------------------------------|--------------------------------|
D|--------------------------------|--------------------------------|
A|--------------------------7-9---|9-9-------5---7-9-9---------2-3-|
E|------------------------------7-|------7-------------------4-----|
B|--------------------------------|--------------------------------|

Outro  (3:49)
G|--------------------------------|--------------------------------|
D|--------------------------------|--------------------------------|
A|4-2---------4-------------------|--------------------------------|
E|----4-----------------x-2---4---|5-----5---------------------0-1-|
B|------2---------2---------------|--------------------------------|

G|--------------------------------|--------------------------------|
D|--------------4-------4---------|--------------------------------|
A|--------------------------------|------------------------5-5-5-5-|
E|2-----2---------2-------2-2-3-3-|4-----4-------------------------|
B|--------------------------------|--------------0-3-3-3-3---------|

G|--------------------------------|--------------------------------|
D|--------------x-----------------|--------------------------------|
A|--------------------------------|--------------------------------|
E|------------------------2---4---|5-----5-------5-x-----------0-1-|
B|2-----2---------2---2-----------|--------------------------------|

G|--------------------------------|--------------------------------|
D|--------------------------------|--------------------------------|
A|------------------------2---2-3-|4---------------------------2-3-|
E|2-------2-2-3-4-------4---4-----|--------------------------4-----|
B|------2-------------------------|----2-----2-----2---------------|

G|--------------------------------|--------------------------------|
D|--------------------------------|--------------------------------|
A|4-2---------4-------------------|--------------------------------|
E|----4-----------------x-2---4---|5-----5-------5-x-----------0-1-|
B|------2---------2---------------|--------------------------------|

G|--------------------------------|--------------------------------|
D|--------------4-------4---------|--------------------------------|
A|--------------------------------|------------------------5-5-5-5-|
E|2-----2---------2-------2-2-3-3-|4-----4-------------------------|
B|--------------------------------|--------------0-3-3-3-3---------|

G|--------------------------------|--------------------------------|
D|--------------x-----------------|--------------------------------|
A|--------------------------------|--------------------------------|
E|------------------------2---4---|5-----5-------5-x-----------0-1-|
B|2-----2---------2---2-----------|--------------------------------|

G|--------------------------------|--------------------------------|
D|--------------------------------|--------------------------------|
A|------------------------2---2-3-|4-------------------------------|
E|2-------2-2-3-4-------4---4-----|--------------------------------|
B|------2-------------------------|----2-----2-----2---------------|


************************************

| x   Dead note
| \   Slide down

************************************
less
plus
Add to Songbook Print Version How to play lesson Submit videolesson
Click the best TAGS for this song:
None of them
Contributor: Anonymous Correct

If you can not find the chords or tabs you want, look at our partner E-chords. If you are a premium member, you have total access to our video lessons.

If you find a wrong Bad To Me from Anderson .Paak, click the correct button above.

login/signup
my songbooks
my recent views
my submits