S Aquelarre

Aves Rapaces tab

Aquelarre

tools Ultimate Tabs

Start AutoScroll Font Size Down Font Size Up

Find us on Facebook

chords
tabs
bass
ukulele
keyboards
drums
flute
harmonica
guitar pro
video
Ultimate-Tabs

Aves Rapaces

Se la dedico a mi viejo que es la que me influenció y me 
hizo escuchar esta banda que es exelente...Gracias Viejo!! 

Intro: 

G--------3-------------3-----------5----------5----- 
D------5---5-3-5-----5---5-3-5---5---3-5----5---3-5- 
A----5-------------5-----------3----------3--------- 
E--3-------------3---------------------------------- 

Verso: 'Cruzan las aguas...' 

G--------3-------------3-----------5----------5----- 
D------5---5-3-5-----5---5-3-5---5---3-5----5---3-5- 
A----5-------------5-----------3----------3--------- 
E--3-------------3----------------------------------(x2) 

Estribillo: 'Las suaves...' 

G------------------------------------------ 
D-------------1-1-------8------------------ 
A-1-1-----1-1-----1-------6-666666-----3--- 
E-----1-1-----------3-1------------3-3----- 

G--------3-------------3-----------5----------5----- 
D------5---5-3-5-----5---5-3-5---5---3-5----5---3-5- 
A----5-------------5-----------3----------3--------- 
E--3-------------3---------------------------------- 

Verso: 'Gente del valle...' 

G--------3-------------3-----------5----------5----- 
D------5---5-3-5-----5---5-3-5---5---3-5----5---3-5- 
A----5-------------5-----------3----------3--------- 
E--3-------------3----------------------------------(x2) 

Estribillo: 'Cercana la cordillera...' 

G------------------------------------------ 
D---------3h5----------------8------------- 
A-1-1---------6-6-3-3--1-------6-66666----- 
E-----3-3----------------3-1-----------3-3- 

'Hasta oir la señal...' 

G-------------------------------------------------------------------------- 
D---------5-6-7-8---7-8-9-10---5-6-7-8---7-8-9-10---5-6-7-8---------------- 
A-33333-6---------8----------6---------8----------6---------8---------6-6-5 
E-------------------------------------------------------------5-6-7-8------ 

'Lejanos de su raza...' 

G-----------0----5----5---------- 
D-----4---0----5----5------------ 
A---3---1----3----6-------------- 
E-2------------------------------ 

Solo de guitarra: 

G--------3-------------3-----------5----------5----- 
D------5---5-3-5-----5---5-3-5---5---3-5----5---3-5- 
A----5-------------5-----------3----------3--------- 
E--3-------------3----------------------------------(x2) 

Estribillo: 'Y las suaves...' 

G---------------3-0-------------------------- 
D---------3---3-----1-------6h8-------------- 
A-1-1---3---1---------1---------6-666666----- 
E-----1-----------------3-1--------------3-3- 

'De este día veloz....' 

G---------------------------------------------------------------------------------- 
D---------555-66-7-8----------------------------------5-6-7-8---7-8-9-10---5-6-7-8- 
A-33333-6------------8----------6---------8---------6---------8----------6--------- 
E----------------------5-6-7-8----3-4-5-6---5-6-7-8-------------------------------- 

'...deciiiiiiiirrrr' 

G---------------------------- 
D---------------------------- 
A--3333333333333333---------- 
E---------------------------- 

Final: 'Nadie se pregunta hasta la muerte...' 

G------------------------5-----------------------------------------------5------------------- 
D-------2-2-33---------5---3-5------3-5-5555------------2-2-33---------5---3-5------3-5-5555- 
A-3---3--------3---0-3---------3-33----------0-22-3---3--------3---0-3---------3-33---------- 
E---3------------3----------------------------------3------------3--------------------------- 

Aguante PrincipioFinal!!! 

Espero que les sirva, cualquier cosa escriban...Suerte! 
less
plus
Add to Songbook Print Version How to play lesson Submit videolesson
Click the best TAGS for this song:
None of them
Contributor: AppNNess Correct

If you can not find the chords or tabs you want, look at our partner E-chords. If you are a premium member, you have total access to our video lessons.

If you find a wrong Bad To Me from Aquelarre, click the correct button above.

login/signup
my songbooks
my recent views
my submits