Arctic Monkeys

D Is For Dangerous bass

Arctic Monkeys

Album:Favourite Worst Nightmare

Year:2007

tools Ultimate Tabs

Start AutoScroll Font Size Down Font Size Up

Find us on Facebook

chords
tabs
bass
ukulele
keyboards
drums
flute
harmonica
guitar pro video
Ultimate-Tabs

D Is For Dangerous

Arctic Monkeys - D Is For Dangerous (Bass)

Intro
G|----------------------------------------------------------------------|
D|--10---10-10--10-10--10-10--10-10--10-10--10-10--10-10----------------|
A|----------------------------------------------------------------------|
E|----------------------------------------------------------------------|

Verse (0:07)
G|---------------------------------------------------------------------|
D|------------------------8-10-10-10-8---------------------------------|   x4
A|---------------10-10--------------------10-10------------------------|
E|---8-8-8-11----------------------------------------------------------|

Chorus (0:20)
G|--------------------------------------------------------------------|
D|--------------------------------------------------------------------|
A|---8-8-8-8-8--6--3--------------------------------------------------| x2
E|--------------------------------------------------------------------|

G|--------------------------------------------------------------------|
D|--------------------------------------------------------------------|
A|------------9-9-9---------------------------------------------------| x2
E|---8-8-8-8----------------------------------------------------------|

G|--------------------------------------------------------------------|
D|--------------------------------------------------------------------|
A|---8-8-8-8-8--6--3--------------------------------------------------| x2
E|--------------------------------------------------------------------|

G|--------------------------------------------------------------------|
D|--------------------------------------------------------------------|
A|--------------------------------------------------------------------|
E|---8-8--11--6--6-6--4-4-4-3-----------------------------------------|

(Repeat the verse and chorus for the rest of the song)
less
plus
Add to Songbook Print Version How to play lesson Submit videolesson
Click the best TAGS for this song:
None of them
Contributor: jherswee Correct

If you can not find the chords or tabs you want, look at our partner E-chords. If you are a premium member, you have total access to our video lessons.

If you find a wrong Bad To Me from Arctic Monkeys, click the correct button above.

login/signup
my songbooks
my recent views
my submits