tools Ultimate Tabs

Start AutoScroll Font Size Down Font Size Up

Find us on Facebook

chords tabs
bass
ukulele keyboards
drums
flute
harmonica
guitar pro video
Ultimate-Tabs

Dancing shoes

---------------------------------------------------------------------------
                                 Dancing Shoes
---------------------------------------------------------------------------

g----------    -------------------------------|
d-----4---- x2 --------------------- x 1------|     x4
a-------5--    -4-4-4-6-4--7-7-7-9-7----------|
e-4-4----7-    -------------------------------|

g----------|
d----------|
a----4-2---| x4
e-4-2---4--|

g----------    -------------------------------|
d-----4---- x2 --------------------- x 1------|     x4
a-------5--    -4-4-4-6-4--7-7-7-9-7----------|
e-4-4----7-    -------------------------------|

g----------|
d----------|
a----4-2---| x4
e-4-2---4--|


g---------------------------------------------|
d---------------------------------------------|
a---------------------4-4-4-6-4----7-7-7-9-7--| x6
e-4-4-4-2-4--4-4-4-2-4------------------------|

g-------------------------------------|
b-------------------------------------|
a-----------------4-4-4-4-7-7-7-7 x 2-|
e-4-4-4-4-4-4-4-4---------------------|

g------------|
b------------|
a------------| x4
e-4-4-4-2-4--|

tabed by Prillan


If there is anything that you don't understand please e -mail me  : [email protected]
less
plus
Add to Songbook Print Version How to play lesson Submit videolesson
Click the best TAGS for this song:
None of them
Contributor: luisgasg Correct

If you can not find the chords or tabs you want, look at our partner E-chords. If you are a premium member, you have total access to our video lessons.

If you find a wrong Bad To Me from Arctic Monkeys, click the correct button above.

login/signup
my songbooks
my recent views
my submits