Arctic Monkeys

Do I Wanna Know bass

Arctic Monkeys

tools Ultimate Tabs

Start AutoScroll Font Size Down Font Size Up

Find us on Facebook

chords tabs
bass
ukulele keyboards
drums
flute
harmonica
guitar pro video
Ultimate-Tabs

Do I Wanna Know

Tabbed by  Francesco Candeloro

Brand new song by the Arctic Monkeys
Bss tab

~ let ring
/ slide to

        INTRO
G|-----------------|
D|-----------------|  (x2)
A|-----------------|
E| -3~-11~-8~-10/3~|

       VERSE 1
G|-----------------|           -----------------|
D|-----------------|           -----------------|
A|-----------------|(x3)       -----------------|
E|-3~-11~-8~-10/3~ |           ---3~-11~-8~-10~-|

     PRE-CHORUS
G|-----------------------------------------------|
D|-----------------------------------------------|
A|--------------------------------5--------1-----|
E|-15/11~-8-10-11-10-8~--6-8~--6-8--3~--1-3--3~--|

G|---------------------------------------|
D|---------------------------------------|
A|----------------------------------- ---|
E|-15/11~-8-10-11-10-8~--6-8~--3~-3~-----|

     CHORUS
G|--- ----------------------------------------|
D|-------------1/3/1~-----------0-------------|
A|----1------1-------3/5/3~-1/3/-3~-1/3/55----|
E|-1/3- 3~1/3------------------------------3~-|

G|---------------------------------------------|
D|-------------1/3/1~--------------------------|
A|----1------1-------3/5/3~1~-3/5/3~-1/3/55----|
E|-1/3- 3~1/3------------------3-------------3~|

    VERSE 2
G|-----------------|            ---------------|
D|-----------------|            ---------------|
A|-----------------|(x3)        ---------------|
E|-3~-11~-8~-10/3~ |            --3~-11~-8~-10~|

    PRE-CHORUS
G|-----------------------------------------------|
D|-----------------------------------------------|
A|--------------------------------5--------1-----|
E|-15/11~-8-10-11-10-8~--6-8~--6-8--3~--1-3--3~--|

G|---------------------------------------------|
D|---------------------------------------------|
A|-------------------------------5-------1- ---|
E|-15/11~-8-10-11-10-8~--6-8~-6-8--3~-1-3- 3~--|

     CHORUS
G|--- ----------------------------------------|
D|-------------1/3/1~-----------0-------------|
A|----1------1-------3/5/3~-1/3/-3~-1/3/55----|
E|-1/3- 3~1/3------------------------------3~-|

G|---------------------------------------------|
D|-------------1/3/1~--------------------------|
A|----1------1-------3/5/3~1~-3/5/3~-1/3/55----|
E|-1/3- 3~1/3------------------3-------------3~|

    BRIDGE
G|----------------------------------------------|
D|----------------------------------------------|   (x3)
A|------------------------------5--- ---1-------|
E|-15/11~-8-10-11-10-8~-6-8~-6-8--3~-1-3- 3~----|


G|--------------------------------------------|
D|--------------------------------------------|
A|------------------------------5--- ---1-8~--|
E|-15/11~-8-10-11-10-8~-6-8~-6-8--3~-1-3------|

    OUTRO
G|-----------------------------------------------------------|
D|-----------------------------------------------------------|
A|---------------------------------- ---5------------5-------|
E|-15/11~-8-10-11-9-8~-6-8~---3~----6-8--3~--3~--6-8--3~--3--|





Tabbed by  Francesco Candeloro
less
plus
Add to Songbook Print Version How to play lesson Submit videolesson
Click the best TAGS for this song:
None of them
Contributor: kingcona Correct

If you can not find the chords or tabs you want, look at our partner E-chords. If you are a premium member, you have total access to our video lessons.

If you find a wrong Bad To Me from Arctic Monkeys, click the correct button above.

login/signup
my songbooks
my recent views
my submits