chords
tabs
bass ukulele keyboards
drums
flute
harmonica
guitar pro video
Ultimate-Tabs

Evil Twin

Main riff (from 0:06): 

e|---------------------------------------| 
B|---------------------------------------| 
G|---------------------------------------| 
D|---------------------------------------| 
A|---------------------------------------| 
E|--2--2--2--2--0--5--0--2--2--2--2--2---| 

Chorus (0:50): 

e|------------------------------------| 
B|------------------------------------| 
G|------------------------------------| 
D|--12--12--12--12--7--7--7--9--9--9--| 
A|--12--12--12--12--7--7--7--9--9--9--| 
E|--10--10--10--10--5--5--5--7--7--7--| 

e|------------------------------| 
B|------------------------------| 
G|--14/14--/16b18r--14/12--/16--| 
D|------------------------------| 
A|------------------------------| 
E|------------------------------| 

e|---------------------------------| 
B|---------------------------------| 
G|---------------------------------| 
D|--12--9--12--9--12--9--12--9--10-| 
A|--12--9--12--9--12--9--12--9--10-| 
E|--10--7--10--7--10--7--10--7--8--| 

Solo (2:29): 

e|---------------------------------| 
B|---------------------------------| 
G|---------------------------------| 
D|--12--9--12--9--12--9--12--9--10-| 
A|--12--9--12--9--12--9--12--9--10-| 
E|--10--7--10--7--10--7--10--7--8--|  
less
plus
Add to Songbook Print Version How to play lesson Submit videolesson
Click the best TAGS for this song:
None of them
Contributor: robeLiqu Correct

If you can not find the chords or tabs you want, look at our partner E-chords. If you are a premium member, you have total access to our video lessons.

If you find a wrong Bad To Me from Arctic Monkeys, click the correct button above.

login/signup
my songbooks
my recent views
my submits