Arctic Monkeys

I bet that you look on the dance floor(ver.2) tab

Arctic Monkeys

chords
tabs
bass
ukulele
keyboards
drums
flute
harmonica
guitar pro
video
Ultimate-Tabs

I bet that you look on the dance floor(ver.2)

Intro: (guitar one) 
E|---------------------|| 
B|---------------------|| 
G|---------------------|| 
D|-4-4--4-4--4-4--4-4--|| 
A|-4-4--4-4--4-4--4-4--|| 
E|-2-2--2-2--2-2--2-2--|| 
 
Do this 2 times, with a stumr patter of down up, but on the second time through leave  
up strokes to ring. 
 
Intro: (guitar two) 
 
Guitar 2 does the same as guitar 1 for the first time round, but on the second time he  
F# using the up down up down strum pattern and keeps going all the way through the solo  
the first verse. 
 
 
Solo: 
 
E|-------------------------------------------------------------------------------------------------||| 
B|-------------------------------------------------------------------------------------------------||| 
G|----------------------------------------9-9-9-9-11-11-11-11-14-14-14-14-16-16-16-16-14-16b(x8)---||| 
D|-------------------9-9-9-9-11-11-11-11-11--------------------------------------------------------||| 
A|9-9-9-9-12-12-12-12------------------------------------------------------------------------------||| 
E|-------------------------------------------------------------------------------------------------||| 
 
 
Basically you hit everyone note 4 times and I recommend you do an up down stroke all the  
through that until you do the 16th fret bend 8 times which you should do just down strokes. 
 
E|--------------------------------------------------------------|| 
B|--------------------------------------------------------------|| 
G|16-14--------14-16-14--------14-16b-16--161616-14--------14---|| 
D|-----16-14-16--------16-14-16--------------------16-14-16--16-|| 
A|--------------------------------------------------------------|| 
E|--------------------------------------------------------------|| 
 
E|--------------------------------------------------------------|| 
B|--------------------------------------------------------------|| 
G|11-11-11-9--------9--------9----------------------------------|| 
D|-----------11-9-11--11-9-11--11-9---9----11b(x8)-9--------9---|| 
A|---------------------------------12--12-----------12-9-12--9--|| 
E|--------------------------------------------------------------|| 
 
On the 6th and 7th time of bendint the 11 fret on the d string, let the bend down and  
the final 8th time you hit the string is just the normal note on the 11th fret of the D  
(C#) 
 
 
Verse: 
E|---------------------------|| 
B|---------------------------|| 
G|---------------------------|| 
D|-11-11--9-9-9-9--7-7-7--4--|| 
A|-11-11--9-9-9-9--7-7-7--4--|| 
E|-9--9---7-7-7-7--5-5-5--2--|| 
 
Play the verse 8 times but on the on the 5th fret hit the chord then lift it up after  
one. If you listen to the song you'll heard the guitarist does it, and hit's the string  
each different 5th chord but deadens them. But they're the chords to use but just figure 
out how you play it whilst listening to the track. 
 
 
Chorus: 
 
Chorus: 
E|------------------------------------------------------------------|| 
B|------------------------------------------------------------------|| 
G|------------------------------------------------------------------|| 
D|-4-4-4-4-4-4-4-4--7-7-7-7-7-7-7-7--9-9-9-9-9-9-9-9-2-4-4-4-4-4-4-4|| 
A|-4-4-4-4-4-4-4-4--7-7-7-7-7-7-7-7--9-9-9-9-9-9-9-9-4-4-4-4-4-4-4-4|| 
E|-2-2-2-2-2-2-2-2--5-5-5-5-5-5-5-5--7-7-7-7-7-7-7-7-2-2-2-2-2-2-2-2|| 
 
2nd solo after the first Chorus: 
 
E|-------------------------------------------------------|| 
B|-------------------------------------------------------|| 
G|-------------------------------------------------------|| 
D|--11-----9-9-9-9-9-9--7----------------------7-9-7-9---|| 
A|-----12-----------------9---9-9-9-7-9-9-7-9------------|| 
E|-------------------------------------------------------|| 
 
E|-------------------------------------------------------|| 
B|-------------------------------------------------------|| 
G|-----9----9--11-------14----14-16-14-16b---------------|| 
D|--11---11----------16----16----------------------------|| 
A|-------------------------------------------------------|| 
E|-------------------------------------------------------|| 
 
 
The part after the 2nd Chorus where he sings "Oh there ain't no love no monituques or  
etc, you carry on with the structure of the Chorus but instead of starting the 2nd fret  
just go straight on to the 5th fret and carry on with the usual structure of the Chorus. 
 
Ok then the at the end of tha before the start of the Chorus, just do the intro again  
but modify, so you do the 2nd fret down up 8 times, then do it approximately 16 times with  
gaps inbetween them until it goes silent and "I BET THAT YOU LOOK GOOD ON THE DANCE FLOOR!" is shouted. 
 
It then goes back into the Chorus but starts on the 5th fret instead of the 2nd. 
 
Structure: 
 
Intro 
Solo 
Verse 
Chorus 
2nd Solo 
Verse 
Chorus 
Extended part of the Chorus 
Modified Intro 
Chorus 
 
 
 
 
less
plus
Add to Songbook Print Version How to play lesson Submit videolesson
Click the best TAGS for this song:
None of them
Contributor: sfraLoll Correct

If you can not find the chords or tabs you want, look at our partner E-chords. If you are a premium member, you have total access to our video lessons.

If you find a wrong Bad To Me from Arctic Monkeys, click the correct button above.

login/signup
my songbooks
my recent views
my submits