tools Ultimate Tabs

Start AutoScroll Font Size Down Font Size Up

Find us on Facebook

chords tabs
bass
ukulele keyboards
drums
flute
harmonica
guitar pro
video
Ultimate-Tabs

Mad Sounds

-------------------------------------------------------------------------------
                            Mad Sounds - Arctic Monkeys
-------------------------------------------------------------------------------
Tabbed by: JuffBass
Youtube: https://www.youtube.com/user/JuffBass (bass covers with tabs)

=====
HOW TO PLAY / BASS COVER VIDEO: http://youtu.be/MXZ1sZJESLc
=====

Tuning: EADG


Intro (~0.24 - ~0.30)
G|------------------------|
D|-12-10------------------|
A|-------13-12~---5~------|
E|--------------------3~--|

Intro #2 (~0.30 - ~0.41)
G|-----------------------------------------|
D|-----8--8-10-----8--10-----8--8-10-----8-|
A|-8-----------8---------8-----------8-----|
E|---8-----------8---------8-----------8---|

Verse (~0.42 - ~1.05)
G|--------------------------|
D|-------------8----8-8--10-|
A|-8---8-8--10---8----------|
E|---8----------------------|

Bridge (~1.06 - ~1.12)
G|--------------------|
D|--------------------|
A|-6--3---3-5---------|
E|------5------5-3--6-|

Chorus (~1.12 - ~1.34)
G|--------------|
D|------8-8--10-|
A|-8------------|
E|----8---------|

End of the chorus
G|--------|
D|------8-|
A|-8------|
E|----8---|

Verse #2 (~1.35 - ~2.00) and Outro (~2.11 - ~3.25)
G|----------------------------------|
D|------------------8-----8---8--10-|
A|-8-----8---8--10------8---8-------|
E|-----8----8-----------------------|

Verse fills
G|------------------------------------|
D|------------------8-----8---/12--10-|
A|-8-----8---8--10------8---8---------|
E|-----8----8-------------------------|

Bridge #2 (~2.00 - ~2.11)
G|----------------------------------|
D|----------------------------------|
A|-----------------3-3----3----3--5-|
E|-3-3--1-3-1-3-5-------3---3-------|

less
plus
Add to Songbook Print Version How to play lesson Submit videolesson
Click the best TAGS for this song:
None of them
Contributor: waralegl Correct

If you can not find the chords or tabs you want, look at our partner E-chords. If you are a premium member, you have total access to our video lessons.

If you find a wrong Bad To Me from Arctic Monkeys, click the correct button above.

login/signup
my songbooks
my recent views
my submits