Arctic Monkeys

Snap Out Of It bass

Arctic Monkeys

tools Ultimate Tabs

Start AutoScroll Font Size Down Font Size Up

Find us on Facebook

chords tabs
bass
ukulele keyboards
drums
flute
harmonica
guitar pro
video
Ultimate-Tabs

Snap Out Of It

-------------------------------------------------------------------------------
                               Snap Out Of It - Arctic Monkeys
-------------------------------------------------------------------------------
Tabbed by: Juln.


Tuning: Standard

Verse

G|--------------------------------------|
D|--------------------------------------|
A|----------------------------------1-3-|
E|-1-1-1-1-1-1-1-1-1-1-1-1-1-1-1--4-----|

G|--------------------------------------|
D|----------------------------------1---|
A|-----------------------------1--3---3-|
E|-1-1-1-1-1-1-1-1-1-1-1-1-1-1----------|

G|-----------------------------------3---|
D|-----------------------------1-3/5---5-|
A|-1-1-1-1-1-1-1-1-1-1-1-1-1-1-----------|
E|---------------------------------------|

G|--------------------------------------|
D|--------------------------------------|
A|-1-1-1-1-1-1-1-1-1-1-1-1-1-1-/3-1-----|
E|----------------------------------4-3-|


Chorus 

G|------------------------------------------|
D|-----------------------------6-6-6-8-6----|
A|-4-4-4-4--4-4-4--4-6-8-8-8-8-----------6\-|   x2
E|---------4------4-------------------------|

G|---------------------------------------------|
D|---------------------------------------------|
A|-4-4-4-4--4-4--4-6-4-----------------------3-|
E|---------4----4------4\-1-1-1-1-/4-4-4-3-4---|

G|---------------------------------------|
D|---------------------------------------|
A|-4-4-4-4--4-4--4-6---3---1-------------|
E|---------4----4--------------4---3\----|


Brekdown

G|--------------------------------------|
D|--------------------------------------|
A|----------------------------------1-3-|
E|-1-1-1-1-1-1-1-1-1-1-1-1-1-1-1--4-----|


Verse

G|--------------------------------------|
D|--------------------------------------|
A|-----------------------------1h3p1----|
E|-1-1-1-1-1-1-1-1-1-1-1-1-1-1-------4--|

G|--------------------------------------|
D|--------------------------------------|
A|--------------------------------------|
E|-1-1-1-1-1-1-1-1-1-1-1-1-1-1-1-1-1-4--|

G|-----------------------------------3---|
D|-----------------------------1-3/5---5-|
A|-1-1-1-1-1-1-1-1-1-1-1-1-1-1-----------|
E|---------------------------------------|

G|--------------------------------------|
D|--------------------------------------|
A|-1-1-1-1-1-1-1-1-1-1-1-1-1-1-/3-1-----|
E|----------------------------------4-3-|


Chorus 

G|------------------------------------------|
D|-----------------------------6-6-6-8-6----|
A|-4-4-4-4--4-4-4--4-6-8-8-8-8-----------6\-|   x2
E|---------4------4-------------------------|

G|---------------------------------------------|
D|---------------------------------------------|
A|-4-4-4-4--4-4--4-6-4-----------------------3-|
E|---------4----4------4\-1-1-1-1-/4-4-4-3-4---|

G|----------------------------------------|
D|----------------------------------------|
A|-4-4-4-4--4-4--4-6---3---1--------------|
E|---------4----4--------------4---3\---1-|


Bridge

G|--------------------------------------------------|
D|--------------------------------------------------|
A|---------------3/8-(let-ring)-----------/3-1------|
E|-1-(let-ring)--------------------------------4-3--|


Chorus 

G|------------------------------------------|
D|-----------------------------6-6-6-8-6----|
A|-4-4-4-4--4-4-4--4-6-8-8-8-8-----------6\-|   x2
E|---------4------4-------------------------|

G|---------------------------------------------|
D|---------------------------------------------|
A|-4-4-4-4--4-4--4-6-4-----------------------3-|
E|---------4----4------4\-1-1-1-1-/4-4-4-3-4---|

G|----------------------------------------|
D|----------------------------------------|
A|-4-4-4-4--4-4--4-6---3---1--------------|
E|---------4----4--------------4---3------|




| /  slide up
| \  slide down
| h  hammer-on
| p  pull-off
| ~  vibrato
| +  harmonic
| x  Mute note
===============================================================================
less
plus
Add to Songbook Print Version How to play lesson Submit videolesson
Click the best TAGS for this song:
None of them
Contributor: becctall Correct

If you can not find the chords or tabs you want, look at our partner E-chords. If you are a premium member, you have total access to our video lessons.

If you find a wrong Bad To Me from Arctic Monkeys, click the correct button above.

login/signup
my songbooks
my recent views
my submits