Audioslave

Cochise bass

Audioslave

Album:Audioslave

Year:2002

tools Ultimate Tabs

Start AutoScroll Font Size Down Font Size Up

Find us on Facebook

chords tabs
bass
ukulele keyboards drums
flute
harmonica
guitar pro
video
Ultimate-Tabs

Cochise

Intro (Um pouco depois da bateria)
G|-----------------------------------|
D|-----------------------------------|
A|-----------------------------------|
E|-000000000000000000000000000000000-|

Intro e Verso
G|-------------------------|
D|-2--0-0-------2-0--------|
A|-----2-2---------2-------|
E|----------3-0------3-0---|

Pré-Refrão
G|-------------------------------------|
D|--------------7--8-------------------|
A|--------------5--6-------------------|
E|-------------------------------------|

Refrão

G|---------------------------------------------------------------------------|  x2
D|-------2--2------------------------------------2--2------------------------|  
A|---5------------------------------2--------5---------------------------2---|
E|---------------5--3--0--3--5--------------------------5--3--0--3--5--------|

Volta o verso e depois o refrão de novo.

Ponte
G|-----------------|
D|-----------------|
A|--2--2-----------| x4
E|----0--0~--------|

G|-----------------|
D|-----------------|
A|--5/7----5/7-----| x3
E|------0------0~--|

G|-----------------|
D|-----------------|
A|--5/7-----5~-----|
E|------0----------|

O baixo para no solo da guitarra, depois entra o pré-refrão e o refrão para encerrar.

Pré-Refrão
G|-------------------------------------|
D|--------------7--8-------------------|
A|--------------5--6-------------------|
E|-------------------------------------|

Refrão

G|---------------------------------------------------------------------------|  x2
D|-------2--2------------------------------------2--2------------------------|  
A|---5------------------------------2--------5---------------------------2---|
E|---------------5--3--0--3--5--------------------------5--3--0--3--5--------|
less
plus
Add to Songbook Print Version How to play lesson Submit videolesson
Click the best TAGS for this song:
None of them
Contributor: ustischo Correct

If you can not find the chords or tabs you want, look at our partner E-chords. If you are a premium member, you have total access to our video lessons.

If you find a wrong Bad To Me from Audioslave, click the correct button above.

login/signup
my songbooks
my recent views
my submits