Audioslave

Cochise tab

Audioslave

Album:Audioslave

Year:2002

tools Ultimate Tabs

Start AutoScroll Font Size Down Font Size Up

Find us on Facebook

chords
tabs
bass ukulele keyboards drums
flute
harmonica
guitar pro
video
Ultimate-Tabs

Cochise

Afinação Normal (E, B, G, D, A, e)
Legengas:

P.M. – Palm Mute
~~~  - Deixar Tocar
xxx  - Abafar
 ^	- Full Bend 
 H	- Hammer On
 P	- Pull Off

Intro (a) (0:00 a 0:30s)

Essa parte não tem guitarras, mas fica um som de ‘elevador’
no fundo junto com a bateria

E:-----------------...|
B:-----------------...|
G:-----------------...|
D:-----------------...|
A:-----------------...|
E:-0-0-0-0-0-0-0-0-...|
   P.M-------------...|

Intro (b) (0:31 a 0:54s)
Assim que a bateria muda, uma guitarra continua na Intro (a)
e a segunda guitarra entra.
 

Verso          Repete 10x
E:----------------------------|-----------------------|
B:----------------------------|-----------------------|
G:----------------------------| ----------------7--8--|
D:----------------------------|-----------------7--8--|
A:--7-5---5-------7-5---------|--7-5---5--------5--6--|
E:------7---7-3-0-----7-------|------7---7-3-0--------|



Refrão           Repete 3x    Solo
E:---------------------------|----------------------------------------|
B:---------------------------|----------------------------------------|
G:---9-9---------------------|--2--2--2--2--14--14--14--14--14--14--14|
D:---9-9---------------------|----------------------------------------|
A:---7-7-----------------2-5-|----------------------------------------|
E:--------5-3-0---3----5-----|----------------------------------------|

Verso           Repete 6x
E:----------------------------|-----------------------|
B:----------------------------|-----------------------|
G:----------------------------| ----------------7--8--|
D:----------------------------|-----------------7--8--|
A:--7-5---5-------7-5---------|--7-5---5--------5--6--|
E:------7---7-3-0-----7-------|------7---7-3-0--------|

Refrão         Repete 7x         Repete 3x      2x
E:---------------------------|-------------|-----------|
B:---------------------------|-------------|-----------|
G:---9-9---------------------|--4-----4----|--2---2----|
D:---9-9---------------------|-------------|-----------|
A:---7-7-----------------2-5-|-----2-----2-|----0---0--|
E:--------5-3-0---3----5-----|-------------|-----------|


  Repete 5x
E:---------------------------|
B:---------------------------|
G:---------------------------|
D:---9-9---------------------|
A:---7-7-----------------2-5-|
E:--------5-3-0---3----5-----|

Refrao 7x

Para entender melhor a música escute-a 1º
less
plus
Add to Songbook Print Version How to play lesson Submit videolesson
Click the best TAGS for this song:
None of them
Contributor: 1477Munk Correct

If you can not find the chords or tabs you want, look at our partner E-chords. If you are a premium member, you have total access to our video lessons.

If you find a wrong Bad To Me from Audioslave, click the correct button above.

login/signup
my songbooks
my recent views
my submits