S Audioslave

Exploder bass

Audioslave

Album:Audioslave

Year:2002

tools Ultimate Tabs

Start AutoScroll Font Size Down Font Size Up

Find us on Facebook

chords
tabs
bass
ukulele
keyboards
drums
flute
harmonica
guitar pro
video
Ultimate-Tabs

Exploder

No Bass ‘til 0:12
VERSE
G-------------------
D-------------------
A-0-------0---------
E—-00-2-0---00-2-0—

CHORUS
G-----------------0--
D--------------------
A-0--------0---------
E—-00-2-0—--00-2-0---

BRIDGE/3RD VERSE
G------------------------------------
D------------------------------------
A------------------------------------
E-2222222222222222-0000000000000000—-

After Cornell’s break “da un du da dow”
END
G------------------
D------------------
A------------------
E-0-2-0-2-0-2-2~~--
less
plus
Add to Songbook Print Version How to play lesson Submit videolesson
Click the best TAGS for this song:
None of them
Contributor: liebbenj Correct

If you can not find the chords or tabs you want, look at our partner E-chords. If you are a premium member, you have total access to our video lessons.

If you find a wrong Bad To Me from Audioslave, click the correct button above.

login/signup
my songbooks
my recent views
my submits