S Audioslave

Hypnotize bass

Audioslave

Album:Audioslave

Year:2002

tools Ultimate Tabs

Start AutoScroll Font Size Down Font Size Up

Find us on Facebook

chords
tabs
bass
ukulele
keyboards
drums
flute
harmonica
guitar pro
video
Ultimate-Tabs

Hypnotize

this is a very rage against the machine like riff, and is very easy to play
Intro
G-------------------
D-------------------
A-------------------
E---3/10-11p10-/6---

Verse
G-------------------
D-------------------
A-------------------
E---3/10-11p10-/6---

chorus
G-------------------
D-------------------
A-------------------
E---3/10-11p10-/6---

Solo
G-------------------
D-------------------
A-------------------
E---3/10-11p10-/6---
less
plus
Add to Songbook Print Version How to play lesson Submit videolesson
Click the best TAGS for this song:
None of them
Contributor: hammWaza Correct

If you can not find the chords or tabs you want, look at our partner E-chords. If you are a premium member, you have total access to our video lessons.

If you find a wrong Bad To Me from Audioslave, click the correct button above.

login/signup
my songbooks
my recent views
my submits