S Audioslave

I Am the Highway bass

Audioslave

Album:Audioslave

Year:2002

tools Ultimate Tabs

Start AutoScroll Font Size Down Font Size Up

Find us on Facebook

chords tabs
bass
ukulele keyboards drums
flute
harmonica
guitar pro
video
Ultimate-Tabs

I Am the Highway

INTRO (0:22)
||------------------------|------------------------|------------------------|------------------------||
||------------------------|------------------------|------------------------|------------------------||
||------------------------|----------------------7-|------------------------|------------------------||
||-5---------5-5--5-----0-|-5---------5-5--5-------|-5---------5-5--5-----0-|-5---------5-5--5-----3-||
   1  +  2  +  3  +  4  +   1  +  2  +  3  +  4  +   1  +  2  +  3  +  4  +   1  +  2  +  3  +  4  +


VERSE 1  (0:33)
||------------------------|------------------------|------------------------|------------------------||
||------------------------|------------------------|------------------------|------------------------||
||----------------------0-|-3---------3-3--3-----2-|------------------------|------------------------||
||-1---------1-1--1-------|------------------------|-3---------3-3--3-----4-|-5---------5-5--5-----3-||
   1  +  2  +  3  +  4  +   1  +  2  +  3  +  4  +   1  +  2  +  3  +  4  +   1  +  2  +  3  +  4  +
   Pearls           and   swine                   bereft            of       me

||------------------------|------------------------|------------------------|------------------------||
||------------------------|------------------------|------------------------|------------------------||
||----------------------0-|-3---------3-3--3-----2-|------------------------|----------------------3-||
||-1---------1-1--1-------|------------------------|-3---------3-3--3-----3-|-5---------5-5--5-------||
   1  +  2  +  3  +  4  +   1  +  2  +  3  +  4  +   1  +  2  +  3  +  4  +   1  +  2  +  3  +  4  +
   Long             and    weary             my     road             has     been               I  was

(0:55)							     (play 2 times)
||------------------------|------------------------|------------------------|------------------------||
|o------------------------|------------------------|------------------------|------------------------o|
|o----------------------0-|-3-----0---0-0--0--0--0-|----------------------0-|-3-----0---0-0--0--0--0-o|
||-1---------1-1--1-------|------------------------|-3---------3-3--3-------|------------------------||
   1  +  2  +  3  +  4  +   1  +  2  +  3  +  4  +   1  +  2  +  3  +  4  +   1  +  2  +  3  +  4  +
   lost          in   the   cities                  alone         in   the   hills                  No
   sorrow             or   pity          for         leaving              I   feel



CHORUS 1 (1:17)
||------------------------|------------------------|------------------------|------------------------||
||------------------------|------------------------|------------------------|------------------------||
||-3-----3------3-3--3--3-|------------------------|-5-----5------5-5--5--5-|----------------------2-||
||------------------------|-3-----3------3-3--3--3-|------------------------|-5-----5------5-5--5----||
   1  +  2  +  3  +  4  +   1  +  2  +  3  +  4  +   1  +  2  +  3  +  4  +   1  +  2  +  3  +  4  +
                   I   am   not   your    rolling    wheels          I am the highway

||------------------------|------------------------|------------------------|------------------------||
||------------------------|------------------------|------------------------|------------------------||
||-3-----3------3-3--3--3-|------------------------|-5-----5------5-5--5--5-|-7-----7------7-7--7--7-||
||------------------------|-3-----3------3-3--3--3-|------------------------|------------------------||
   1  +  2  +  3  +  4  +   1  +  2  +  3  +  4  +   1  +  2  +  3  +  4  +   1  +  2  +  3  +  4  +
                   I   am   not   your     carpet    ride            I am the sky

||------------------------||
||------------------------||
||-7----------(7)---------||
||------------------------||
   1  +  2  +  3  +  4  + 
   (sky)

(1:41)
||------------------------|------------------------|------------------------|------------------------||
||------------------------|------------------------|------------------------|------------------------||
||------------------------|----------------------7-|------------------------|------------------------||
||-5-----------5--5-----0-|-5-----------5--5-------|-5-----------5--5-----0-|-5-----------5--5-----3-||
   1  +  2  +  3  +  4  +   1  +  2  +  3  +  4  +   1  +  2  +  3  +  4  +   1  +  2  +  3  +  4  +



VERSE 2  (1:52)
||------------------------|------------------------|------------------------|------------------------||
||------------------------|------------------------|------------------------|------------------------||
||----------------------0-|-3---------3-3--3-----2-|------------------------|------------------------||
||-1---------1-1--1-------|------------------------|-3---------3-3--3-----3-|-5---------5-5--5-----3-||
   1  +  2  +  3  +  4  +   1  +  2  +  3  +  4  +   1  +  2  +  3  +  4  +   1  +  2  +  3  +  4  +
   Friends        and      liers         don't      wait                for   me                   Cuz

||------------------------|------------------------|------------------------|------------------------||
||------------------------|------------------------|------------------------|------------------------||
||----------------------0-|-3---------3-3--3-----2-|------------------------|----------------------3-||
||-1---------1-1--1-------|------------------------|-3---------3-3--3-----3-|-5---------5-5--5-------||
   1  +  2  +  3  +  4  +   1  +  2  +  3  +  4  +   1  +  2  +  3  +  4  +   1  +  2  +  3  +  4  +
   I'll            get     on               all      by                     myself               I put

(2:14)                                                                                   (play 2 times)
||------------------------|------------------------|------------------------|------------------------||
|o------------------------|------------------------|------------------------|------------------------o|
|o----------------------0-|-3-----0---0-0--0--0--0-|----------------------0-|-3-----0---0-0--0--0--0-o|
||-1---------1-1--1-------|------------------------|-3---------3-3--3-------|------------------------||
   1  +  2  +  3  +  4  +   1  +  2  +  3  +  4  +   1  +  2  +  3  +  4  +   1  +  2  +  3  +  4  +
   millions         of     miles                   under            my       heels                 And
   still              too  close                 To  you                I    feel



CHORUS 2  (2:36)                                                                         (play 3 times)
||------------------------|------------------------|------------------------|------------------------||
||------------------------|------------------------|------------------------|------------------------||
||-3-----3------3-3--3--3-|------------------------|-5-----5------5-5--5--5-|----------------------2-||
||------------------------|-3-----3------3-3--3--3-|------------------------|-5-----5------5-5--5----||
   1  +  2  +  3  +  4  +   1  +  2  +  3  +  4  +   1  +  2  +  3  +  4  +   1  +  2  +  3  +  4  +
                   I   am   not   your    rolling    wheels          I am the highway
                   I   am   not   your     carpet    ride            I am the sky
                   I   am   not   your    blowing   wind            I am the lightning

||------------------------|------------------------|------------------------|------------------------||
||------------------------|------------------------|------------------------|------------------------||
||-3-----3------3-3--3--3-|------------------------|-5-----5------5-5--5--5-|-7-----7------7-7--7--7-||
||------------------------|-3-----3------3-3--3--3-|------------------------|------------------------||
   1  +  2  +  3  +  4  +   1  +  2  +  3  +  4  +   1  +  2  +  3  +  4  +   1  +  2  +  3  +  4  +
                   I   am   not   your     autumn   moon             I am the night

||------------------------|-------------------------|------------------------||
||------------------------|-------------------------|------------------------||
||-5/7---7------7-7--7--7-|-7-----7------7-7--7--7--|-5/7---7------7-7--7--7-||
||------------------------|-------------------------|------------------------||
   1  +  2  +  3  +  4  +   1  +  2  +  3  +  4  +    1  +  2  +  3  +  4  + 
   night



GUITAR SOLO (bass line)  (3:28)                                                          (play 4 times)
||------------------------|------------------------|------------------------|------------------------||
|o------------------------|------------------------|------------------------|------------------------o|
|o----------------------0-|-3--3--3--3--3--3--3--2-|------------------------|------------------------o|
||-1--1--1--1--1--1--1----|------------------------|-3--3--3--3--3--3--3--3-|-5--5--5--5--5--5--5--3-||
   1  +  2  +  3  +  4  +   1  +  2  +  3  +  4  +   1  +  2  +  3  +  4  +   1  +  2  +  3  +  4  +


   Repeat CHORUS 2 at 4:12



OUTRO (5:04)
||------------------------|------------------------|------------------------|------------------------||
||------------------------|------------------------|------------------------|------------------------||
||------------------------|----------------------7-|------------------------|------------------------||
||-5---------5-5--5-----0-|-5---------5-5--5-------|-5---------5-5--5-----0-|-5---------5-5--5-----3-||
   1  +  2  +  3  +  4  +   1  +  2  +  3  +  4  +   1  +  2  +  3  +  4  +   1  +  2  +  3  +  4  +

||------------------------|------------------------|------------------------|------------------------||
||------------------------|------------------------|------------------------|------------------------||
||------------------------|----------------------7-|------------------------|------------------------||
||-5---------5-5--5-----0-|-5---------5-5--5-------|-5---------5-5--5-----0-|-5----------------------||
   1  +  2  +  3  +  4  +   1  +  2  +  3  +  4  +   1  +  2  +  3  +  4  +   1  +  2  +  3  +  4  +

ICQ: 165298592

_______________________________________________________
Contribuição: Gabriel Fernandes do Nascimento([email protected])
less
plus
Add to Songbook Print Version How to play lesson Submit videolesson
Click the best TAGS for this song:
None of them
Contributor: marctimh Correct

If you can not find the chords or tabs you want, look at our partner E-chords. If you are a premium member, you have total access to our video lessons.

If you find a wrong Bad To Me from Audioslave, click the correct button above.

login/signup
my songbooks
my recent views
my submits