S Audioslave

Light My Way bass

Audioslave

Album:Audioslave

Year:2002

tools Ultimate Tabs

Start AutoScroll Font Size Down Font Size Up

Find us on Facebook

chords
tabs
bass
ukulele
keyboards
drums
flute
harmonica
guitar pro
video
Ultimate-Tabs

Light My Way

I’m giving you the bare minimum, play along w/ the CD to see how many times you repeat, etc.  This is one of the best songs on the album, ENJOY!
Tuning low to high – D,A,D,G

(No bass ‘til 0:21)
INTRO/CHORUS
G-----------------------------------
D----------0------------------------
A--------3---3--------------3-------
D-0-0--00-------0-0-00-3-5----------

VERSE
G-----------------------------------
D----------0-3----------------------
A-----------------------------------
D-00-3-0--------00-3-0-3-2----------
Part of the verse gets cut off right before the chorus, just listen to get it right

BRIDGE		    HEAVIER PART OF BRIDGE
G-----------------            ----------------------
D----0----0-------            -----0---0-----0---0--
A--3----3---------            ---3---3-----3---3----
D-----------------            ----------0-----------

That should do it.  Play along with the CD to perfect the amount of times you play each, but you’ll get it
less
plus
Add to Songbook Print Version How to play lesson Submit videolesson
Click the best TAGS for this song:
None of them
Contributor: ALEEjoin Correct

If you can not find the chords or tabs you want, look at our partner E-chords. If you are a premium member, you have total access to our video lessons.

If you find a wrong Bad To Me from Audioslave, click the correct button above.

login/signup
my songbooks
my recent views
my submits