Audioslave

Seven Nation Army tab

Audioslave

tools Ultimate Tabs

Start AutoScroll Font Size Down Font Size Up

Find us on Facebook

chords
tabs
bass
ukulele
keyboards
drums
flute
harmonica
guitar pro
video
Ultimate-Tabs

Seven Nation Army

Guitarra 
 
Introdução e Versos 
e|---------------------------------------------------------------------------- 
b|---------------------------------------------------------------------------- 
g|---------------------------------------------------------------------------- 
d|---------------------------------------------------------------------------- 
a|--7----7--10--7--5--3----2-------------------------------------------------- 
e|---------------------------------------------------------------------------- 
PM--------------------------------------------------------------------------- 
 
 Pré-Refrão 
e|-------------------------------0-0------------------------------------------ 
b|-----------------------------0-0-0------------------------------------------ 
g|---------------------------0-0-0-0------------------------------------------ 
d|-----------------------0-0-0-0-0-0------------------------------------------ 
a|--5-5-5-5-5-5-5-5--0-0-0-0-0-0-0-0------------------------------------------ 
e|--3-3-3-3-3-3-3-3----------------------------------------------------------- 
 
 Refrão 
e|---------------------------------------------------------------------------- 
b|---------------------------------------------------------------------------- 
g|--9----9--/12--9--7--5----4--x--9----9--/12--9--7--5/7-5---4--2------------- 
d|--9----9--/12--9--7--5----4--x--9----9--/12--9--7--5/7-5---4--2------------- 
a|--7----7--/10--7--5--3----2--x--7----7--/10--7--5--3/5-3---2--0------------- 
e|---------------------------------------------------------------------------- 
 
 Toque 2 vezes e depois do refrão 
e|-------------------------------0-0------------------------------------------ 
b|-----------------------------0-0-0------------------------------------------ 
g|---------------------------0-0-0-0------------------------------------------ 
d|-----------------------0-0-0-0-0-0------------------------------------------ 
a|--5-5-5-5-5-5-5-5--0-0-0-0-0-0-0-0------------------------------------------ 
e|--3-3-3-3-3-3-3-3----------------------------------------------------------- 
 
 Solo 
e|---------------------------------------------------------------------------- 
b|---------------------------------------------------------------------------- 
g|---------O solo é tocado junto com outra guitarra que toca o refrão--------- 
d|---------------------------------------------------------------------------- 
a|---------------------------------------------------------------------------- 
e|-3-3-3-3-3-3-3-3--5-5-5-5-5-5-5-5------------------------------------------- 
 
e|---------------------------------------------------------------------------- 
b|--------------------------)------------------------------------------------- 
g|--9~-----9~-9~--9~--9/--12-------11~---------------------------------------- 
d|---------------------------------------------------------------------------- 
a|---------------------------------------------------------------------------- 
e|---------------------------------------------------------------------------- 
 
e|---------------------------------------------------------------------------- 
b|---------------------------------------------------------------------------- 
g|--9~-----9~-12~--14~--12~--12~-12/14~--12~-11~------------------------------ 
d|---------------------------------------------------------------------------- 
a|---------------------------------------------------------------------------- 
e|---------------------------------------------------------------------------- 
 
e|---------------------------------------------------------------------------- 
b|--------------------------)------------------------------------------------- 
g|--9~-----9~-9~--9~--9/--12-------11~--------------------------------------- 
d|---------------------------------------------------------------------------- 
a|---------------------------------------------------------------------------- 
e|---------------------------------------------------------------------------- 
 
e|---------------------------------------------------------------------------- 
b|---------------------------------------------------------------------------- 
g|--9~-----9~-12~--14~--12~--12~-12/14~--12~-11~------------------------------ 
d|---------------------------------------------------------------------------- 
a|---------------------------------------------------------------------------- 
e|---------------------------------------------------------------------------- 
 
				) 
e|--12~-----12~-15~--12~--12~--15-------14~----------------------------------- 
b|---------------------------------------------------------------------------- 
g|---------------------------------------------------------------------------- 
d|---------------------------------------------------------------------------- 
a|---------------------------------------------------------------------------- 
e|---------------------------------------------------------------------------- 
 
e|--12~-----12~-15~--17~--15~--15~-15/17~--15~-14~---------------------------- 
b|---------------------------------------------------------------------------- 
g|---------------------------------------------------------------------------- 
d|---------------------------------------------------------------------------- 
a|---------------------------------------------------------------------------- 
e|---------------------------------------------------------------------------- 
 
                                ) 
e|--12~-----12~-14~--12~--12~--15-------15~----------------------------------- 
b|---------------------------------------------------------------------------- 
g|---------------------------------------------------------------------------- 
d|---------------------------------------------------------------------------- 
a|---------------------------------------------------------------------------- 
e|---------------------------------------------------------------------------- 
 
e|--12~-----12~-14~--12~--12~--14~--12~--------------------------------------- 
b|---------------------------------------13~-12~------------------------------ 
g|---------------------------------------------------------------------------- 
d|---------------------------------------------------------------------------- 
a|---------------------------------------------------------------------------- 
e|---------------------------------------------------------------------------- 
 
e|---------------------------------------------------------------------------- 
b|---------------------------------------------------------------------------- 
g|---------------------------------------------------------------------------- 
d|---------------------------------------------------------------------------- 
a|----------------------7~~~~~--7~~~~~Deixe até dar microfonia---------------- 
e|--3~~~~~~~--5~~~~~~~----------0--------------------------------------------- 
 
 Fim
e|---------------------------------------------------------------------------- 
b|---------------------------------------------------------------------------- 
g|--7~~~---7------------------------------------------------------------------ 
d|--7~~~---7------------------------------------------------------------------ 
a|--9~~~---9------------------------------------------------------------------ 
e|---------------------------------------------------------------------------- 
 
 Definições: 
 
)        =  bend 
/        =  slide up 
\        =  slide down 
~~       =  vibrato 
/\/\/\   =  vibrato 
PM       =  palm mute 
(x)/     =  finger scrape 
x/x      =  pickscrape 
Trem     =  toque a nota o mais rápido possível 
)r       =  bend and release  
^        =  hammeron/pulloff 
*        =  microfonia descrontolada 
NH       =  harmôica natural 
 
Valeu todo mundo que leu esta tablatura do Audioslave. 
 
 
 
Baixo 
 
This riff continues through the whole song: 
 
G|--------------------------------------------- 
D|--------------------------------------------- 
A|--------------------------------------------- 
E|--7--7--10--7--5--3--2---7--7--10--7--5--3--2 
 
G|--------------------------------------------- 
D|--------------------------------------------- 
A|--------------------------------------------- 
E|--7--7--10--7--5--3--2---7--7--10--7--5--3- 
 
_______________________________________________________ 
Contribuição: ivan paulo barboza costa([email protected]) 
less
plus
Add to Songbook Print Version How to play lesson Submit videolesson
Click the best TAGS for this song:
None of them
Contributor: dakosqua Correct

If you can not find the chords or tabs you want, look at our partner E-chords. If you are a premium member, you have total access to our video lessons.

If you find a wrong Bad To Me from Audioslave, click the correct button above.

login/signup
my songbooks
my recent views
my submits