Audioslave

Show Me How To Live tab

Audioslave

Album:Audioslave

Year:2002

tools Ultimate Tabs

Start AutoScroll Font Size Down Font Size Up

Find us on Facebook

chords
tabs
bass ukulele keyboards drums
flute
harmonica
guitar pro
video
Ultimate-Tabs

Show Me How To Live

PM - palm mute
 x - muted string
 
h - hammer on
 p - pull off
 
\\ - slide down
 // - slide up
 

e|-------
b|--3----
g|--2---- Intro(x4)
d|--0---2
a|------2
D|------2


e|----------------------------------------
b|---------------------------------------- Intro/Verse(x2)
g|----------------------------------------
d|--------2-0-2-xx-0-2--------2-2--2-5-0--
a|------2---0-2-xx-0-2-0h1-0--0-2--2-5-0--
D|--0h2-----0-2-xx-0-2----------2--2-5-0--

e|---------------------
b|---------------------
g|---------------------
d|--------2-0-2-xx-0-2-
a|------2---0-2-xx-0-2-
D|--0h2-----0-2-xx-0-2-


e|--------------------------------------
b|-------------------------------------- Verse(x4)
g|--------------------------------------
d|--------2-0-2-xx-0-2--------2-2--2-5-0
a|------2---0-2-xx-0-2-0h1-0--0-2--2-5-0
D|--0h2-----0-2-xx-0-2----------2--2-5-0
  PM^^^^^^^^^^^^^^^^^^^^^^^^^^^^^^^^^^^^

e|---------------------|(Last Verse)-|
b|---------------------|-------------|
g|---------------------|-------------|
d|--------2-0-2-xx-0-2-|-x-x-xxx-x-x-|
a|------2---0-2-xx-0-2-|-x-x-xxx-x-x-|
D|--0h2-----0-2-xx-0-2-|-x-x-xxx-x-x-|
  PM^^^^^^^^^^^^^^^^^^


e|--------------------------------------
b|--------------------------------------
g|-------------------------------------- Chorus(x8)
d|--2-5-2h0-2h0-0h2-0-------------------
a|--2-5-2h0-2h0-------------------------
D|--2-5-2h0-2h0-------------------------


(Some kind of effect)
e|--------------------------------------
b|--------------------------------------
g|-9-9-9-9-9-9-9-9-9-9-9-9-9-9-9-9-9-9-9
d|--------------------------------------
a|--------------------------------------
D|--------------------------------------

(2:52)
e|----|-------
b|----|--3---- (x8)
g|----|--2----
d|--2-|--0---2
a|--2-|------2
D|--2-|------2


(3:58)          (x3)
e|--------|----------|-----------------
b|--------|----------|-----------------
g|--------|----------|-----------------
d|--2---2-|--0-2---2-|-/////////////14-(hold)
a|--2---2-|--0-2---2-|-/////////////14-
D|--2---2-|--0-2---2-|-/////////////14-

Intro(x4)
Intro/Verse(x2)
Verse(x4)
Chorus(x8)
Verse(x2)
Chorus(x8)
Other Part at 2:52
Chours(x8)
less
plus
Add to Songbook Print Version How to play lesson Submit videolesson
Click the best TAGS for this song:
None of them
Contributor: Sounpawr Correct

If you can not find the chords or tabs you want, look at our partner E-chords. If you are a premium member, you have total access to our video lessons.

If you find a wrong Bad To Me from Audioslave, click the correct button above.

login/signup
my songbooks
my recent views
my submits