S Audioslave

The Last Remaining Light bass

Audioslave

Album:Audioslave

Year:2002

tools Ultimate Tabs

Start AutoScroll Font Size Down Font Size Up

Find us on Facebook

chords tabs
bass
ukulele keyboards drums
flute
harmonica
guitar pro
video
Ultimate-Tabs

The Last Remaining Light

Title:  
  
Tuning: BEADG
Tabbed by: BassPlayer275

This is probably one of the best songs on the album. I found a tab for 
it, but it was a bit wrong, and incomplete. So i took it upon myself 
to fix it up. It *should* be 100% correct, just listen to the song for 
timing, etc. If there are any corrections, comments, suggestions, 
and/or random thoughts, leave a comment.
First tab, so be nice...

*notes* The F at the beginging of the verse is sometimes left out, 
listen for changes...

 Intro/Bridge:
G|-7--------6--------5--------4-----------------------------|
D|---7-5-7----7-5-3----5-3-5----5-3-------------------------|
A|----------------------------------------------3--------5~-|
E|----------------------------------5--6-3-1-3----3-1-3-----|
B|----------------------------------------------------------|

 Verse:
G|-----------------------------------------------------------|
D|-----------------------------------------------------------|
A|----/5-------------/3-----------/5------/7--------/3-------|
E|-1-----3-5--0-3-5-----3-1--3-1-----3-5-----3-5-------1--3--|
B|-----------------------------------------------------------|

 Verse End: 1&2
G|-----|--------|
D|-----|--------|
A|-----|--------|
E|--1--|--------|
B|-----|--3~~~~~|

 Interlude:
G|---------------------------------------|
D|---------------------------------------|
A|-5----------4--------3-----------------|
E|----3-5--------3--------1---------1----|
B|-------------------------------0-------|

  Chorus:                End:                  x3 then:
G|---------------------||------------------------|----------|
D|---------------------||------------------------|----------|
A|---------------------||------------------------|----------|
E|-1~---0~--------3~---||-7~-----3-3-3-3-3-3-3-3-|----7~~~~-|
B|-----------0~--------||------------------------|----------|

Structure:
Intro	x1
Verse w/ end 1
Verse w/ end 2
Rest
Verse w/ end 1
Verse w/ end 2
Rest
Interlude x2
Verse w/ end 1
Verse
Chorus x3 end with E|-/7-|
Bridge w/ verse end 1
Bridge
Chorus x3
End
less
plus
Add to Songbook Print Version How to play lesson Submit videolesson
Click the best TAGS for this song:
None of them
Contributor: keterob4 Correct

If you can not find the chords or tabs you want, look at our partner E-chords. If you are a premium member, you have total access to our video lessons.

If you find a wrong Bad To Me from Audioslave, click the correct button above.

login/signup
my songbooks
my recent views
my submits