S Audioslave

We Got A Better Bomb bass

Audioslave

tools Ultimate Tabs

Start AutoScroll Font Size Down Font Size Up

Find us on Facebook

chords
tabs
bass
ukulele
keyboards
drums
flute
harmonica
guitar pro
video
Ultimate-Tabs

We Got A Better Bomb

tabbed this song just to encourage everyone to download this song it is unrealeased and not on the 
cd so download it  is one of the coolest riffs and awsome to play.

drop d tuning

riff1
g----------------------------------------------------------
d----------------3--------------------------------------
a-------3-5-xxxx--5-3--0-3-5---3-0-3-0-------------
d-0-xx----------------------0-----------5-3-5-3-0-3-0

riff1 variation
g---------------------------------------------
d----------------3-------------------------
a-------3-5-xxxx--5-3--0-3-5--3-0-3---3--
d-0-xx----------------------0---------5--3-0
less
plus
Add to Songbook Print Version How to play lesson Submit videolesson
Click the best TAGS for this song:
None of them
Contributor: TWISoran Correct

If you can not find the chords or tabs you want, look at our partner E-chords. If you are a premium member, you have total access to our video lessons.

If you find a wrong Bad To Me from Audioslave, click the correct button above.

login/signup
my songbooks
my recent views
my submits