Audioslave

We Got A Better Bomb tab

Audioslave

tools Ultimate Tabs

Start AutoScroll Font Size Down Font Size Up

Find us on Facebook

chords
tabs
bass
ukulele
keyboards
drums
flute
harmonica
guitar pro
video
Ultimate-Tabs

We Got A Better Bomb

 
b: bend 
h: hammer-on 
x: mufled strings 
p: pull-off 
/: Slide 
 
Nota: Esta música aparece por aí também com o nome de ´´We got the whip``. 
 
Riff Principal  x2 
 
e-------------------------------------------------- 
B-------------------------------------------------- 
G-------------------------------------------------- 
D--------------------3p0-5p0----------------------- 
A--------3-5-x-x-x-x---------3p0-------3h5-3h5----- 
D--0-x-x-------------------------0-x-x---------3h5- 
 
e-------------------------------------------------- 
B-------------------------------------------------- 
G-------------------------------------------------- 
D---------------------------3p0-5p0---------------- 
A---------------3-5-x-x-x-x---------3p0--------3h5- 
D-3h5-0h3-0-x-x-------------------------0-x-x------ 
 
e----------------------- 
B----------------------- 
G----------------------- 
D----------------------- 
A-3--------------------- 
D---5--5-3-------------- 
 
 
Verso 1  x8 
 
e--2--2--x--2--x--2--2--x--x--0--0----------------- 
B--3--3--x--3--x--3--3--x--x--1--1----------------- 
G--2--2--x--2--x--2--2--x--x--0--0----------------- 
D--0--0--x--0--x--0--0--x--x--2--2--0--3----------- 
A--0--0--x--0--x--0--0--x--x--3--3--------5--3--5-- 
D--0--0--x--0--x--0--0--x--x--x--x----------------- 
 
Ponte 
 
e-------5------------------------------------------- 
B-------5------------------------------------------- 
G-------6------------------------------------------- 
D--7----7----3----5----7----10---------------------- 
A--7----7----3----5----7----10---------------------- 
D--7----x----3----5----7----10---------------------- 
 
 
Riff Principal  x2 
 
e-------------------------------------------------- 
B-------------------------------------------------- 
G-------------------------------------------------- 
D--------------------3p0-5p0----------------------- 
A--------3-5-x-x-x-x---------3p0-------3h5-3h5----- 
D--0-x-x-------------------------0-x-x---------3h5- 
 
e-------------------------------------------------- 
B-------------------------------------------------- 
G-------------------------------------------------- 
D---------------------------3p0-5p0---------------- 
A---------------3-5-x-x-x-x---------3p0--------3h5- 
D-3h5-0h3-0-x-x-------------------------0-x-x------ 
 
e----------------------- 
B----------------------- 
G----------------------- 
D----------------------- 
A-3--------------------- 
D---5--5-3-------------- 
 
 
Verso 1  x6 
 
e--2--2--x--2--x--2--2--x--x--0--0----------------- 
B--3--3--x--3--x--3--3--x--x--1--1----------------- 
G--2--2--x--2--x--2--2--x--x--0--0----------------- 
D--0--0--x--0--x--0--0--x--x--2--2--0--3----------- 
A--0--0--x--0--x--0--0--x--x--3--3--------5--3--5-- 
D--0--0--x--0--x--0--0--x--x--x--x-----------------  
 
Ponte 
 
e-------5------------------------------------------ 
B-------5------------------------------------------ 
G-------6------------------------------------------ 
D--7----7----3----5----7----10--------------------- 
A--7----7----3----5----7----10--------------------- 
D--7----x----3----5----7----10--------------------- 
 
Riff Principal  x2 
 
e-------------------------------------------------- 
B-------------------------------------------------- 
G-------------------------------------------------- 
D--------------------3p0-5p0----------------------- 
A--------3-5-x-x-x-x---------3p0-------3h5-3h5----- 
D--0-x-x-------------------------0-x-x---------3h5- 
 
e-------------------------------------------------- 
B-------------------------------------------------- 
G-------------------------------------------------- 
D---------------------------3p0-5p0---------------- 
A---------------3-5-x-x-x-x---------3p0--------3h5- 
D-3h5-0h3-0-x-x-------------------------0-x-x------ 
 
e----------------------- 
B----------------------- 
G----------------------- 
D----------------------- 
A-3--------------------- 
D---5--5-3-------------- 
 
Solo: 
 
e---15h16-15-15-15h16-14h15-14-14-14h15- 
B--------------------------------------- 
G--------------------------------------- 
D--------------------------------------- 
A--------------------------------------- 
D--------------------------------------- 
 
e-13h14-13-13-13-13h14-13-14-14-14-15h16- 
B---------------------------------------- 
G---------------------------------------- 
D---------------------------------------- 
A---------------------------------------- 
D---------------------------------------- 
 
e-15-15-15h16-14h15-14-14-14h15-13h14-13- 
B---------------------------------------- 
G---------------------------------------- 
D---------------------------------------- 
A---------------------------------------- 
D---------------------------------------- 
 
e-13-13-13h14-13h14-14h15-14h15------------ 
B--------------------------------12b-12-10- 
G------------------------------------------ 
D------------------------------------------ 
A------------------------------------------ 
D------------------------------------------ 
 
e-12b-12-10--------------12b-12-10------------ 
B-------------12b-12-10-------------12b-12-10- 
G--------------------------------------------- 
D--------------------------------------------- 
A--------------------------------------------- 
D--------------------------------------------- 
 
e-----------------------------19-18------- 
B-----------------------------------19-18- 
G-12b-12-10-11b-9-11-12-11-9-------------- 
D----------------------------------------- 
A----------------------------------------- 
D----------------------------------------- 
 
e------------------------------------------- 
B-----------------------------------19b----- 
G-19-18------------------------------------- 
D---------18-17-19-17-18-17-18-19----------- 
A------------------------------------------- 
D------------------------------------------- 
 
Verso 1  x1 
 
e--2--2--x--2--x--2--2--x--x--0--0----------------- 
B--3--3--x--3--x--3--3--x--x--1--1----------------- 
G--2--2--x--2--x--2--2--x--x--0--0----------------- 
D--0--0--x--0--x--0--0--x--x--2--2--0--3----------- 
A--0--0--x--0--x--0--0--x--x--3--3--------5--3--5-- 
D--0--0--x--0--x--0--0--x--x--x--x----------------- 
 
Verso 2  x1 
 
e--2--2--x--2--x--2--2--x--x------------------- 
B--3--3--x--3--x--3--3--x--x------------------- 
G--2--2--x--2--x--2--2--x--x------------------- 
D--0--0--x--0--x--0--0--x--x--3--5--7--10------ 
A--0--0--x--0--x--0--0--x--x--3--5--7--10------ 
D--0--0--x--0--x--0--0--x--x--3--5--7--10------ 
 
Verso 1  x1 
 
e--2--2--x--2--x--2--2--x--x--0--0----------------- 
B--3--3--x--3--x--3--3--x--x--1--1----------------- 
G--2--2--x--2--x--2--2--x--x--0--0----------------- 
D--0--0--x--0--x--0--0--x--x--2--2--0--3----------- 
A--0--0--x--0--x--0--0--x--x--3--3--------5--3--5-- 
D--0--0--x--0--x--0--0--x--x--x--x----------------- 
 
Verso 2  x1 
 
e--2--2--x--2--x--2--2--x--x---------------------- 
B--3--3--x--3--x--3--3--x--x---------------------- 
G--2--2--x--2--x--2--2--x--x---------------------- 
D--0--0--x--0--x--0--0--x--x--3--5--7--10--------- 
A--0--0--x--0--x--0--0--x--x--3--5--7--10--------- 
D--0--0--x--0--x--0--0--x--x--3--5--7--10--------- 
 
Riff 2  x4 
 
e--------------------------------------------- 
B--------------------------------------------- 
G--------------------------------------------- 
D--------------------3p0-5p0------------------ 
A--------3-5-x-x-x-x---------3p0-------3h5-3- 
D--0-x-x-------------------------0-x-x------- 
 
e--------------- 
B--------------- 
G--------------- 
D--------------- 
A--------------- 
D-5--5-3-------- 
 
Finalização 
 
e-------2/----------------------- 
B-------3/----------------------- 
G-------2/----------------------- 
D--0----0------------------------ 
A--0----0------------------------ 
D--0----0------------------------ 
 
 
_______________________________________________________ 
Contribuição: marcio rodrigo correia da silva([email protected]) 
less
plus
Add to Songbook Print Version How to play lesson Submit videolesson
Click the best TAGS for this song:
None of them
Contributor: NessPhil Correct

If you can not find the chords or tabs you want, look at our partner E-chords. If you are a premium member, you have total access to our video lessons.

If you find a wrong Bad To Me from Audioslave, click the correct button above.

login/signup
my songbooks
my recent views
my submits