S Backstreet Boys

We've Got It Going On bass

Backstreet Boys

tools Ultimate Tabs

Start AutoScroll Font Size Down Font Size Up

Find us on Facebook

chords
tabs
bass
ukulele
keyboards
drums
flute
harmonica
guitar pro video
Ultimate-Tabs

We've Got It Going On

-------------------------------------------------------------------------------
			     WE'VE GOT IT GOIN' ON - Backstreet boys
-------------------------------------------------------------------------------
Tabbed by: metallhead
Email: [email protected]

Tuning: E A D G

Gtr I (E A D G) - 'Bass'

  Q=113
 4/4
  Gtr I
  W          W          W          H    H
|----------|----------|----------|------3----|
|----------|----------|----------|-----------|
|----------|----------|----------|-----------|
|----------|----------|----------|-----------|


  Q.   E Q  Q    Q.   E Q  Q    Q.   E Q  Q    Q.   E Q  Q
|-----------1--|-3---------1--|-----------4--|-3------------|
|-1------------|--------------|-1------------|--------------|
|--------------|--------------|--------------|-----------5--|
|--------------|--------------|--------------|--------------|


  Q.   E Q  Q    Q.   E Q  Q    Q.   E Q  Q    E S S E S S E E Q
|--------------|--------------|-----------4--|--------------------|
|-----------6--|-8---------6--|--------------|--------------------|
|-6------------|--------------|-6------------|--------------------|
|--------------|--------------|--------------|-6---6-6---6-6------|


  Q.   E Q  Q    Q.   E Q  Q    Q.   E Q  Q    Q.   E Q  Q
|--------------|--------------|--------------|--------------|
|--------------|--------------|--------------|--------------|
|-6------------|--------------|-6------------|--------------|
|-----------6--|-7---------4--|-----------6--|-7---------9--|


   Q.   E Q  Q    Q.   E Q  Q    Q.   E Q  Q    Q.   E Q  Q
|---------------|--------------|--------------|--------------|
|---------------|--------------|--------------|--------------|
|------------1--|-2------------|-6------------|--------------|
|-11------------|-----------4--|-----------6--|-7---------9--|


   Q.   E Q  Q    Q.   E Q  Q    Q.   E Q  Q    Q.   E H
|---------------|--------------|--------------|-------------|
|---------------|--------------|-----------6--|-8-----------|
|------------1--|-2------------|-6------------|-------------|
|-11------------|-----------4--|--------------|-------------|


  Q.   E Q  Q    Q.   E Q  Q    Q.   E Q  Q    Q.   E Q  Q
|--------------|--------------|-----------4--|-3------------|
|-----------6--|-8---------6--|--------------|--------------|
|-6------------|--------------|-6------------|-----------5--|
|--------------|--------------|--------------|--------------|


  Q.   E Q  Q    Q.   E Q  Q    Q.   E Q  Q    Q.   E Q  Q
|--------------|--------------|-----------4--|-3------------|
|-----------6--|-8---------6--|--------------|--------------|
|-6------------|--------------|-6------------|-----------5--|
|--------------|--------------|--------------|--------------|


  Q.   E Q  Q    Q.   E Q  Q    Q.   E Q  Q    Q.   E Q  Q
|--------------|--------------|-----------4--|-3------------|
|-----------6--|-8---------6--|--------------|--------------|
|-6------------|--------------|-6------------|-----------5--|
|--------------|--------------|--------------|--------------|


  Q.   E Q  Q    Q.   E Q  Q    Q.   E Q  Q    Q.   E Q  Q
|--------------|--------------|-----------4--|-3------------|
|-----------6--|-8---------6--|--------------|--------------|
|-6------------|--------------|-6------------|-----------5--|
|--------------|--------------|--------------|--------------|


  Q.   E Q  Q    Q.   E Q  Q    Q.   E Q  Q    Q.   E Q  Q
|--------------|--------------|--------------|--------------|
|--------------|--------------|--------------|--------------|
|-6------------|--------------|-6------------|-----------5--|
|-----------6--|-7---------4--|-----------6--|-7------------|


  Q.   E Q  Q    Q.   E Q  Q    Q.   E Q  Q    Q.   E Q  Q
|--------------|--------------|--------------|--------------|
|--------------|--------------|--------------|--------------|
|-6------------|--------------|-6------------|--------------|
|-----------6--|-7---------4--|-----------6--|-7---------9--|


   Q.   E H      Q   Q  E  E E  E    +S  S E Q  S S  S S E  E   W
|--------------|------------------|---------------------------|------|
|--------------|------------------|---------------------------|------|
|--------------|--------9----9----|----------------------9----|-1----|
|-11-----------|----11----11---11-|-(11)--------9-9-11-----11-|------|


  Q.   E Q  Q    Q.   E Q  Q    Q.   E Q  Q    Q.   E Q  Q
|-----------1--|-3---------1--|-----------4--|-3------------|
|-1------------|--------------|-1------------|--------------|
|--------------|--------------|--------------|-----------5--|
|--------------|--------------|--------------|--------------|


  Q.   E Q  Q    Q.   E Q  Q    Q.   E Q  Q    Q.   E Q  Q
|--------------|--------------|-----------4--|-3------------|
|-----------6--|-8---------6--|--------------|--------------|
|-6------------|--------------|-6------------|-----------5--|
|--------------|--------------|--------------|--------------|


  Q.   E Q  Q    Q.   E Q  Q    Q.   E Q  Q    Q.   E Q  Q
|--------------|--------------|-----------4--|-3------------|
|-----------6--|-8---------6--|--------------|--------------|
|-6------------|--------------|-6------------|-----------5--|
|--------------|--------------|--------------|--------------|


  Q.   E Q  Q    Q.   E Q  Q    Q.   E Q  Q    Q.   E H
|--------------|--------------|-----------4--|-3-----------|
|-----------6--|-8---------6--|--------------|-------------|
|-6------------|--------------|-6------------|-------------|
|--------------|--------------|--------------|-------------|


  W          W          W          W
|----------|----------|----------|------|
|----------|----------|----------|------|
|----------|----------|----------|------|
|----------|----------|----------|------|


  W          W          W          W
|----------|----------|----------|------|
|----------|----------|----------|------|
|----------|----------|----------|------|
|----------|----------|----------|------|


  W          Q.   E Q  Q    Q.   E Q  Q    Q.   E Q  Q
|----------|-----------1--|-3---------1--|-----------4--|
|----------|-1------------|--------------|-1------------|
|----------|--------------|--------------|--------------|
|----------|--------------|--------------|--------------|


  Q.   E Q  Q    Q.   E Q  Q    Q.   E Q  Q    Q.   E Q  Q
|-3------------|--------------|--------------|-----------4--|
|--------------|-----------6--|-8---------6--|--------------|
|-----------5--|-6------------|--------------|-6------------|
|--------------|--------------|--------------|--------------|


  Q.   E Q  Q    Q.   E Q  Q    Q.   E Q  Q    Q.   E Q  Q
|-3------------|--------------|--------------|-----------4--|
|--------------|-----------6--|-8---------6--|--------------|
|-----------5--|-6------------|--------------|-6------------|
|--------------|--------------|--------------|--------------|


  Q.   E Q  Q    Q.   E Q  Q    Q.   E Q  Q    Q.   E Q  Q
|-3------------|--------------|--------------|-----------4--|
|--------------|-----------6--|-8---------6--|--------------|
|-----------5--|-6------------|--------------|-6------------|
|--------------|--------------|--------------|--------------|


  Q.   E Q  Q    Q.   E Q  Q    Q.   E Q  Q    Q.   E Q  Q
|-3------------|--------------|--------------|-----------4--|
|--------------|-----------6--|-8---------6--|--------------|
|-----------5--|-6------------|--------------|-6------------|
|--------------|--------------|--------------|--------------|


  Q.   E Q  Q    Q.   E Q  Q    Q.   E Q  Q    Q.   E Q  Q
|-3------------|--------------|--------------|-----------4--|
|--------------|-----------6--|-8---------6--|--------------|
|-----------5--|-6------------|--------------|-6------------|
|--------------|--------------|--------------|--------------|


  Q.   E Q  Q
|-3--------------*|
|----------------*|
|-----------5----*|
|----------------*|


Duration Legend
---------------
W - whole; H - half; Q - quarter; E - 8th; S - 16th; T - 32nd; X - 64th; a - acciaccatura
+ - note tied to previous; . - note dotted; .. - note double dotted
Uncapitalized letters represent notes that are staccato (1/2 duration)
Irregular groupings are notated above the duration line
Duration letters will always appear directly above the note/fret number it represents the
duration for.  Duration letters with no fret number below them represent rests.  Multi-
bar rests are notated in the form Wxn, where n is the number of bars to rest for.  Low
melody durations appear below the staff

Tablature Legend
----------------
 h   - hammer-on
 p   - pull-off
 b   - bend
 pb  - pre-bend
 r   - bend release (if no number after the r, then release immediately)
 /\  - slide into or out of (from/to "nowhere")
 s   - legato slide
 S   - shift slide
  - natural harmonic
n  - artificial harmonic
n(n) - tapped harmonic
 ~   - vibrato
 tr  - trill
 T   - tap
 TP  - trem. picking
 PM  - palm muting
\n/  - tremolo bar dip; n = amount to dip
 \n  - tremolo bar down
 n/  - tremolo bar up
/n\  - tremolo bar inverted dip
 =   - hold bend; also acts as connecting device for hammers/pulls
 <>  - volume swell (louder/softer)
 x   - on rhythm slash represents muted slash
 o   - on rhythm slash represents single note slash

Misc Legend
-----------
 |  - bar
||  - double bar
||o - repeat start
o|| - repeat end
*|  - double bar (ending)
 :  - bar (freetime)
 $  - Segno
 &  - Coda
Tempo markers -  = BPM(8/16=s8/s16), where s8 = swing 8ths, s16 = swing 16ths
less
plus
Add to Songbook Print Version How to play lesson Submit videolesson
Click the best TAGS for this song:
None of them
Contributor: armatola Correct

If you can not find the chords or tabs you want, look at our partner E-chords. If you are a premium member, you have total access to our video lessons.

If you find a wrong Bad To Me from Backstreet Boys, click the correct button above.

login/signup
my songbooks
my recent views
my submits