Bahamas

Let The Good Times Roll tab

Bahamas

tools Ultimate Tabs

Start AutoScroll Font Size Down Font Size Up

Find us on Facebook

chords
tabs
bass
ukulele
keyboards
drums
flute
harmonica
guitar pro
video
Ultimate-Tabs

Let The Good Times Roll

Intro

   G                                           Am
e|----------------------------3------2--0---------------------------------------|
B|--------0----------0-----------x---------3--1-------1-------------------------|
G|-----x--0-------x--0-----------x--------------------2-------------------------|
D|-----x----------x-----------------------------------2-------------------------|
A|------------------------------------------------0-------0--2--3--4------------|
E|--3---------3----------3------------------------------------------------------|

   D                                    G
e|--------2-------2-----2----0--------------------------------------------------|
B|-----3--------3----------------3--1--0-------0-------------------0------------|
G|-----2--------2------------------------------0----------------0---------------|
D|--0----------------0-------------------------0----------------0---------------|
A|-----------0------------------------------------------------------------------|
E|-----------------------------------------3--------0--1--2--3------------------|

   G                                Am
e|---------------3-------2--0---------------------------------------------------|
B|--------0----------x---------3--1--------1------------------------------------|
G|-----0-------------x---------------------2------------------------------------|
D|-----0-----------------------------------2------------------------------------|
A|-------------------------------------0-------0--2--3--4-----------------------|
E|--3---------3-----------------------------------------------------------------|

   D                                      G
e|--------2--------2-----2--0-----0---------------------------------------------|
B|-----3--------3--------------3-----3---0--------0--------0--------0--------0--|
G|-----2--------2-------------------------------0--------0--------0--------0----|
D|--0-----------------0-------------------------0--------0--------0--------0----|
A|-----------0------------------------------------------------------------------|
E|-------------------------------------------3--------3--------3--------3-------|


Verse

   G                                     C        C/B    Am
e|----------------------------------------------------------------------------------|
B|--------0---------0---------0--------0----------1---------1---------1---------1---|
G|----0---------0---------0---------0----------0----------0--------2---------2------|
D|----0---------0---------0---------0----------2----------0--------2---------2------|
A|------------------------------------------3----------2--------0---------0---------|
E|--3---------3---------3---------3-------------------------------------------------|

   Em                G                 C        C/B    D/F#
e|----------------------------------------------------------------------------------|
B|--------0---------0---------0--------0----------1---------1---------0~--------0---|
G|----0---------0---------0---------0----------0----------0--------2---------2------|
D|----2---------2---------0---------0----------2----------0--------0---------0------|
A|----2---------2---------------------------3----------2----------------------------|
E|--0---------0---------3---------3-----------------------------2----------2--------|

   G                                     C        C/B    Am
e|----------------------------------------------------------------------------------|
B|--------0---------0---------0--------0----------1---------1---------1---------1---|
G|----0---------0---------0---------0----------0----------0--------2---------2------|
D|----0---------0---------0---------0----------2----------0--------2---------2------|
A|------------------------------------------3----------2--------0---------0---------|
E|--3---------3---------3---------3-------------------------------------------------|

   Em                G                 C        C/B    D
e|--------------------------------------------------------------------2--------2--------2-------2--|
B|--------0---------0---------0--------0----------1---------1------3--------3--------3-------3-----|
G|----0---------0---------0---------0----------0----------0--------2--------2--------2-------2-----|
D|----2---------2---------0---------0----------2----------0-----0-----------------0----------------|
A|----2---------2---------------------------3----------2-----------------0----------------0--------|
E|--0---------0---------3---------3----------------------------------------------------------------|


Chorus

   G                                           Am
e|----------------------------3------2--0---------------------------------------|
B|--------0----------0-----------x---------3--1-------1-------------------------|
G|-----x----------x--------------x--------------------2-------------------------|
D|-----x----------x-----------------------------------2-------------------------|
A|------------------------------------------------0-------0--2--3--4------------|
E|--3---------3----------3------------------------------------------------------|

   D                                    G
e|--------2-------2-----2----0--------------------------------------------------|
B|-----3--------3----------------3--1--0-------0-------------------0------------|
G|-----2--------2------------------------------0----------------0---------------|
D|--0----------------0-------------------------0----------------0---------------|
A|-----------0------------------------------------------------------------------|
E|-----------------------------------------3--------0--1--2--3------------------|

   G                               Am
e|---------------3-------2--0--2---3/5---------------------------3--------3-----|
B|--------0----------x-----------------------1---------1---------1--------1-----|
G|-----0-------------x---------------------2---------2--------2---------2-------|
D|-----0-----------------------------------2---------2--------2---------2-------|
A|-------------------------------------0---------0---------0---------0----------|
E|--3---------3-----------------------------------------------------------------|

   D                                G
e|--------2--------2--------2-------2-----2--0----------------------------------|
B|-----3--------3--------2-------2--------------3b----0-----0~------------------|
G|-----2--------2--------3-------3-----------------------2----------------------|
D|--0-----------------0---------------------------------------------------------|
A|-----------0----------------0-------------------------------------------------|
E|-------------------------------------3----------------------------------------|


Verse
In the deep dark corners of some dirty bar
The people find something that they're looking for
I can't be bothered to look that far
I got so much behind my own door
I got books and records and crossword puzzles and movies made for TV
I'm living now but I ain't loving yet and I need someone to share it all with me
So you can

Chorus
Let the good times roll
Roll and pass me by
I may not feel old inside
Let the good times roll and pass me by


************************************

| x  Dead note
| ~  Vibrato
| /  Slide up
| b  Bend

************************************
less
plus
Add to Songbook Print Version How to play lesson Submit videolesson
Click the best TAGS for this song:
None of them
Contributor: Anonymous Correct

If you can not find the chords or tabs you want, look at our partner E-chords. If you are a premium member, you have total access to our video lessons.

If you find a wrong Bad To Me from Bahamas, click the correct button above.

login/signup
my songbooks
my recent views
my submits