Be Bop Deluxe

Adventures In A Yorkshire Landscape tab

Be Bop Deluxe

tools Ultimate Tabs

Start AutoScroll Font Size Down Font Size Up

Find us on Facebook

chords
tabs
bass
ukulele
keyboards
drums
flute
harmonica
guitar pro
video
Ultimate-Tabs

Adventures In A Yorkshire Landscape


| /  slide up 
| \  slide down 
| s  very rapid slide, sounds like one note 
| h  hammer-on 
| p  pull-off 
| ~  vibrato or sustain 
| +  harmonic 
| x  Mute note 
|(13) ghost note 
| <  pick scrape 
| b  bend 
| r  relax bend 
| pb pre-bend 
| ^  quarter tone bend 
| (x7678x) chord shape 
| (02:10) time marker 
| t = thumb ( fretting hand ) 
| i = index finger ( fretting hand ) 
| m = middle finger ( fretting hand ) 
| r = ring finger ( fretting hand ) 
| p = pinky  ( fretting hand ) 
| 




( studio version, acoustic guitar as below. Live version is piano only ) 


Intro: Waltz feel... 


DmDm9 

e|-5-----------5-------5---5-------5--|-5-----------5-------5---5--------5-| 
B|-6-----------6-------6---6-------6--|-5-----------5-------5---5--------5-| 
G|-7-----------7-------7---7-------7--|-7-----------7-------7---7--------7-| 
D|-7-----------7-------7---7-------7--|-7-----------7-------7---7--------7-| 
A|-5-----------5-------5---5-------5--|-5-----------5-------5---5--------5-| 
E|------------------------------------|------------------------------------| 

 | 1 - x - x - 2 - x - x - 3 - x - x -| 1 - x - x - 2 - x - x - 3 - x - x -| 


Verse: 


DmDm9 
 " Bridges                 and          rivers                  and... " 


DmDm9 
 " buildings pulled down... " 


Bb 
 " Time                    spent   in   places                          my... " 


Bb 
 " footsteps   had     found... " 


C 
             " Mirrors     in           ballrooms   lie... " 


C 
 " smashed                  on     the  ground...  


Dm 
             " Walking     with      November       mists... " 


Dm 
                         " Pathways    and         windows... "  
e|-------------------------------------------------------------------------| 
B|-------------------------------------------------------------------------| 
G|-------------------------------------------------------------------------| 
D|-------------------------------------------------------------------------| 
A|-------------------------------------------------------------------------| 
E|-------------------------------------------------------------------------| 


Dm 
         " and movies in May... " 
e|-------------------------------------------------------------------------| 
B|-------------------------------------------------------------------------| 
G|--------------------------------------------------5--h7--p5--\3-------2--| 
D|-------------------------------------------------------------------------| 
A|-------------------------------------------------------------------------| 
E|-------------------------------------------------------------------------| 


Bb 
                         " Quiet old ladies who... " 
e|-------------------------------------------------------------------------| 
B|-------------------------------------------------------------------------| 
G|-3~~~~~~~~~~~~~~~~~~~~~~~~~~~~~~~~~--------------------------------------| 
D|-------------------------------------------------------------------------| 
A|-------------------------------------------------------------------------| 
E|-------------------------------------------------------------------------| 


Bb 
 " soon pass away... " 
e|-------------------------------------------------------------------------| 
B|-------------------------------------------------------------------------| 
G|------------------------------------------------------------------2--h3--| 
D|-------------------------------------------------------------------------| 
A|-------------------------------------------------------------------------| 
E|-------------------------------------------------------------------------| 


C 
                         " Paintings and songs... " 
e|-------------------------------------------------------------------------| 
B|-------------------------------------------------------------------------| 
G|/5~~~~~~~~~~~~~~~~~~~~~~~~~~~~~~~~~~~~~~~~~~~~~~~~~~~~~~~~~~~~~~~~~~~~~~~~~ 
D|-------------------------------------------------------------------------| 
A|-------------------------------------------------------------------------| 
E|-------------------------------------------------------------------------| 


C 
             " that I'd done in a day... " 
e|-------------------------------------------------------------------------| 
B|-------------------------------------------------------------------------| 
G|~~~~~~~~~~~~~~~~~~~~~~~~~~~~~~~~~~~~~~~~~~~~~~~~~~3-----------5----------| 
D|-------------------------------------------------------------------------| 
A|-------------------------------------------------------------------------| 
E|-------------------------------------------------------------------------| 


Dm 
                               " Going 'round       in          my... "  
e|-------------------------------------------------------------------------| 
B|-------------------------------------------------------------------------| 
G|/7~~~~~~~~~~~~~~~~~~~~~~~~~~~~~~~~~~~~~~~~~~~~~~~~~~~~~~~~~~~~~~~~~~~~~~~~ 
D|-------------------------------------------------------------------------| 
A|-------------------------------------------------------------------------| 
E|-------------------------------------------------------------------------| 


C 
 " head... " 
e|-------------------------------------------------------------------------| 
B|-------------------------------------------------------------------------| 
G|~5~~~~~~~~~~~~~~~~~~~~~~~~~~~~~~~~~~~/\----------------------------------| 
D|-------------------------------------------------------------------------| 
A|-------------------------------------------------------------------------| 
E|----------------------------------------------------------------------1--| 



GF 
                             " Fires on spires                  and... " 
e|-------------------------------------------------------------------------| 
B|-------------------------------------------------------------------------| 
G|-------------------------------------------------------------------------| 
D|-------------------------------------------------------------------------| 
A|-5------------------------------------3----------------------------------| 
E|-3------------------------------------1----------------------------------| 


C 
 " Chimneys of black... " 
e|-------------------------------------------------------------------------| 
B|-------------------------------------------------------------------------| 
G|-------------------------------------------------------------------------| 
D|--------------------------------------------------5-----------7--p5------| 
A|-3----------------------------------3/7-------------------------------7--| 
E|-------------------------------------------------------------------------| 


GF 
                         " Fields on horizons     with... " 
e|-------------------------------------------------------------------------| 
B|-------------------------------------------------------------------------| 
G|-------------------------------------------------------------------------| 
D|-------------------------------------------------------------------------| 
A|-5------------------------------------3----------------------------------| 
E|-3------------------------------------1----------------------------------| 


C 
 " Pylons that crack... " 
e|-------------------------------------------------------------------------| 
B|-------------------------------------------------------------------------| 
G|--------------------------------------------------------------5----------| 
D|--------------------------------------------------5----------------------| 
A|-3----------------------------------3/7----------------------------------| 
E|-------------------------------------------------------------------------| 


Am 
        " With singing              sad wires                   for... " 
e|-------------------------------------------------------------------------| 
B|-------------------------------------------------------------------------| 
G|-7/9~~~~~~~~~~~~~~~~~~~~~~~~~~~~~~~~~~~~~~~~~~~~~~~~~~~~~~~~~~~~~~~~~~~~~~ 
D|-------------------------------------------------------------------------| 
A|-------------------------------------------------------------------------| 
E|-------------------------------------------------------------------------| 


Em- 
 " Council house mystics... 
e|-------------------------------------------------------------------------| 
B|-------------------------------------------------------------------------| 
G|~~~~~~~~~~~~~~~~~~~~~~~~~~~~~~~~~~~~~~~~~~~~~~~~~~\----------------------| 
D|-------------------------------------------------------------------------| 
A|-------------------------------------------------------------------------| 
E|-------------------------------------------------------------------------| 


D 
 " To apply their statistics                                            and... " 
e|-------------------------------------------------------------------------| 
B|-------------------------------------------------------------------------| 
G|-------------------------------------------------------------------------| 
D|-------------------------------------------------------------------------| 
A|-------------------------------------------------------------------------| 
E|-------------------------------------------------------------------------| 


F#m 
 " read    the tea                     leaves... " 
e|-------------------------------------------------------------------------| 
B|-------------------------------------------------------------------------| 
G|-------------------------------------------------------------------------| 
D|-------------------------------------------------------------------------| 
A|-------------------------------------------------------------------------| 
E|-------------------------------------------------------------------------| 



Bm(x24432) 
 " Time        knows       no           li     -    mits        for... " 
e|-------------------------------------------------------------------------| 
B|-------------------------------------------------------------------------| 
G|-7-----------6-----------4------------7-----------6-----------4----------| 
D|-------------------------------------------------------------------------| 
A|-------------------------------------------------------------------------| 
E|-------------------------------------------------------------------------| 


Bm 
 " days        such        as... " 
e|------------------------------------| 
B|------------------------------------| 
G|-7-----------6-----------4~~~~~~~~~~/9 
D|------------------------------------| 
A|------------------------------------| 
E|------------------------------------| 



Cmaj7(x32000) 
 " these... " 
e|-------------------------------------------------------------------------| 
B|-12----------------------------------------------------------------------| 
G|-------12----9-----------------------------------------------------------| 
D|-------------------9-----------------------------------------------------| 
A|-------------------------10~~~~~~~~~~~~~~~~~~~~~~~~~~~~~~~~~~~~~~~~~~~~~~~~~\ 
E|-------------------------------------------------------------------------| 



Note sustains for a couple of bars, then solo begins... 


Solo: 


Cmaj7(x32000) 
02:00 
e|-------------------------------------------------------------------------| 
B|-------------8~~~~~~~~~~~~~~~~~~~~~~-------------------------------------| 
G|--------------------------------------10------9---7h9p7------------------| 
D|----------------------------------------------------------10--9---9h10p9-| 
A|-------------------------------------------------------------------------| 
E|-------------------------------------------------------------------------| 

 | 1 - x - x - 2 - x - x - 3 - x - x -| 1 - x - x - 2 - x - x - 3 - x - x -| 


Fmaj7(x33210) 

e|-------------------------------------------------------------------------| 
B|-------------------------------------------------------------------------| 
G|-------------------------------------------------------------------------| 
D|-------------------------------------------------------------------------| 
A|-10~~~~~~~~~~~~~~~~~~~~~~~~~~~~~~~~~~~~~~~~~~-8---7-------8---7h8p7-7----| 
E|----------------------------------------------------------------------10-| 


Cmaj7(x32000) 
                                                                  (  PM & rake ) 
e|------------------------------------------------------------------------8- 
B|-----------------------------------------------------------------------8-| 
G|----------------------------------------------------------------------9--| 
D|-------------10~~~~~~~~~~~~~~~~~~~~~~~~~~~~~~~~~~~~~~~~~~~~~-------------| 
A|-------------------------------------------------------------------------| 
E|-8-----------------------------------------------------------------------| 


Fmaj7(x33210) 
                                                          ( ghost note ) 
e|-10~~~~~~~~~~~~~~~~~~~~~~~~~~~~~~~~~~~~~~~~~~~~~~~~~~~~~~~~~~(13)--------| 
B|-------------------------------------------------------------------------| 
G|-------------------------------------------------------------------------| 
D|-------------------------------------------------------------------------| 
A|-------------------------------------------------------------------------| 
E|-------------------------------------------------------------------------| 


Cmaj7(x32000) 

e|---------------------------------12---13----15----13-12h13p12------------| 
B|--------------------------------------------------------------15-13p12---| 
G|-----------------------------------------------------------------------14- 
D|-------------------------------------------------------------------------| 
A|-------------------------------------------------------------------------| 
E|-------------------------------------------------------------------------| 


Fmaj7(x33210) 

e|-------------------------------------------------------------------------| 
B|-------------------------13--12h13p12------------------------------------| 
G|-12~~~~~~~~~~~~~~~~~~~~~--------------14------12-\10-----10\9-10--h12----| 
D|------------------------------------------14---------12------------------| 
A|-------------------------------------------------------------------------| 
E|-------------------------------------------------------------------------| 


Cmaj7(x32000) 

e|-------------------------7-------3---------------------------------------| 
B|--------------------------------------5----------------------------------| 
G|-9~~~~~~~~~~~~~~~~~~\0--------------------4------------------------------| 
D|----------------------------------------------5--------------------------| 
A|--------------------------------------------------7~~~~~~~~~~~~~~~----5--| 
E|-------------------------------------------------------------------------| 


Fmaj7(x33210) 

e|-------------------------------------------------------------------------| 
B|-------------------------------------------------------------------------| 
G|-------------------------------------------------------------------------| 
D|-------------------------------------------------------------------------| 
A|-3~~~~~~~~~~~~~~~~~~~~~~~~~~~~~~~~~~~~~~~~~~~~~~~~~~~~~~~~~~/14----------| 
E|-------------------------------------------------------------------------| 


Cmaj7
02:23                        ( alternate picking... ) 
e|-------------------------------------------------------------------------| 
B|--------------------------------------------------------------13-15----13-15 
G|---------------------------------------------12-14----12-14-16------16---| 
D|----------------------------12-14----12-14-15------15--------------------| 
A|-----------12-14----12-14-15------15-------------------------------------| 
E|------(15)-------15------------------------------------------------------| 


Fmaj7

e|----13----13--/15-----------------------------15-/17----17-19/20--19-----| 
B|-17----17-----------17-18-17h18p17p15p0-17-18--------20--------------20~~~~ 
G|-------------------------------------------------------------------------| 
D|-------------------------------------------------------------------------| 
A|-------------------------------------------------------------------------| 
E|-------------------------------------------------------------------------| 


Cmaj7
02:29                                    (     big vibrato     ) 
e|-------------------------------------------------------------------------| 
B|-------------------------------------------------------------------------| 
G|-------------19b21~~~~~~~~~~~~~~~~r17h19~~~~~~~~~~~~~~~~~~~~~19^-17------| 
D|--------------------------------------------------------------------19---| 
A|-------------------------------------------------------------------------| 
E|-------------------------------------------------------------------------| 


Fmaj7(x33210) 

e|-------------17----------------------------------------------------------| 
B|---------17-----17--20----17---------------------------------------------| 
G|-19^-------------------19---19^r19p17-19~~~~~~~~~~17h19p17---------------| 
D|-----------------------------------------------------------19~~~~~~~\----| 
A|-------------------------------------------------------------------------| 
E|-------------------------------------------------------------------------| 


Cmaj7(x32000) 
02:35          (                     Legato...                       ) 
e|---------------------8h10h12-------8h10h12-------8h10h12-------8h10--8---| 
B|--------------8h10h12-------8h10h12-------8h10h12-------8h10h12----12--12- 
G|-------------------------------------------------------------------------| 
D|-------------------------------------------------------------------------| 
A|-------------------------------------------------------------------------| 
E|-------------------------------------------------------------------------| 


Fmaj7(x33210) 
                         ( alternate picking... ) 
e|-------------------------------------------------------------------------| 
B|-10-8--------------------------------------------------------------------| 
G|------10-12-10-9---------------------------------------------------------| 
D|-----------------12-10-12-14-10-12-10-9-------------------------9~~~~~~~~~ 
A|---------------------------------------12-10-12-10-8----8-10-12----------| 
E|-----------------------------------------------------12------------------| 


Cmaj7(x32000) 
                  ( s = slur, very rapid slide, sounds like one note... ) 
e|-------------------------------------------------------------------------| 
B|-------------------------------------------------------------------------| 
G|---------------------------------7---\5----------------------------------| 
D|~~~~~~~~~~~~~~~~~~~~~~~~~10-------------------7---5----------------------| 
A|---------------------------------------------------------7s5----------3--| 
E|-------------------------------------------------------------------------| 

 | 1 - x - x - 2 - x - x - 3 - x - x -| 1 - x - x - 2 - x - x - 3 - x - x -| 


Fmaj7(x33210) 

e|-------------------------------------------------------------------------| 
B|-------------------------------------------------------------------------| 
G|-------------------------------------------------------------------------| 
D|-------------------------------------------------------------------------| 
A|-5~~~~~~~~~~~~~~~~~~~~~~~~~~~~~~~~~~~~~~~~~~~~~~~~~~~~~~~~\--------------| 
E|-------------------------------------------------------------------------| 


( Below: t = thumb; i = index finger; m = middle finger; r = ring finger; p = pinky ) 


Cmaj7(x32000) 
02:47 
e|-------------------------------------------------------------------------| 
B|-------------------------------------------------------------------------| 
G|-------------------------------------------------------------------------| 
D|--------------------------------------5~~~~~~~~~~~~~~~~~~~~~~~~~~~~~~~~~~~ 
A|-------------------------------------------------------------------------| 
E|---------3---3-------3---3-------3---------------------------------------| 
           t   t       t   t       t    i 

Fmaj7(x33210) 

e|-------------------------------------------------------------------------| 
B|-------------------------------------------------------------------------| 
G|-------------------------------------------------------------------------| 
D|--------------------------------------5~~~~~~/7~~\5~~~~~~~~~~~~~~~~~~~~~~~ 
A|-------------------------------------------------------------------------| 
E|---------3---3-------3---3-------3---------------------------------------| 
           t   t       t   t       t    i 

Cmaj7(x32000) 

e|-------------------------------------------------------------------------| 
B|-------------------------------------------------------------------------| 
G|-------------------------------------------------------------------------| 
D|--------------------------------------5-------/7----------7--/9----------| 
A|--------------------------------------------------10------------------12-| 
E|---------3-----------3-----------3---------------------------------------| 
           t           t           t    i           r       i           m 


Fmaj7
  (                    alternate picking...                     ) 
e|---------------------------------------------------------------12h13-12h13h15 
B|------------------------------------------12-13-15-13-12-13-15-----------| 
G|-----------------------10-12-14--10-12-14--------------------------------| 
D|----10-12-14--10-12-14---------------------------------------------------| 
A|-14----------------------------------------------------------------------| 
E|-------------------------------------------------------------------------| 



Cmaj7
02:58 
e|-12h15p12-------------------------------------------------15-------------| 
B|---------13---------------------15b17~~~~~~~~~~~~~~~~~~~~~----15b17~~~~~~~~ 
G|-----------12~~~~~~~~~~~~~~~~~~~-----------------------------------------| 
D|-------------------------------------------------------------------------| 
A|-------------------------------------------------------------------------| 
E|-------------------------------------------------------------------------| 


Fmaj7 

e|-15-------------------------------------------15--13--12h13p12-----------| 
B|~~~~~~~~~17~r15~~~~~~13--12h13p12-----------------------------15------13-| 
G|----------------------------------14--12---------------------------------| 
D|-------------------------------------------------------------------------| 
A|-------------------------------------------------------------------------| 
E|-------------------------------------------------------------------------| 


Cmaj7 
03:04 
e|-15----13----12h13p12----------------------------------------------------| 
B|----------------------15-13p12----12----h13-12h3p12----------------------| 
G|-------------------------------14------------------14-16-12-14--12\10----| 
D|--------------------------------------------------------------14-----12--| 
A|-------------------------------------------------------------------------| 
E|-------------------------------------------------------------------------| 


Fmaj7(x33210) 

e|-------------------------------------------------------------------------| 
B|------------------------------------------------------8~~----------------| 
G|-10p9-10-9-10p9---9-------------------9h10p9---9---7h9~~~-----9b10r9b10r9- 
D|---------------12----12p10p9---9h10h12------12---------------------------| 
A|----------------------------12-------------------------------------------| 
E|-------------------------------------------------------------------------| 


Cmaj7(x32000) 
03:10 
e|-------------------------------------------------------------------------| 
B|-------------------------------------------------------------------------| 
G|9h10h12-9h10h12-9h10h12-9h10h12-9h10h12-9h10h12-9h10h12-9h10h12-9h10h12-9h10h12~~ 
D|-------------------------------------------------------------------------| 
A|-------------------------------------------------------------------------| 
E|-------------------------------------------------------------------------| 


Fmaj7(x33210) 
03:14 
e|-------------------------------------------------------------------------| 
B|-------------------------------------------------------------------------| 
G|---------10--9h10p9---------------------------------------12h13-12h13p12-| 
D|--------------------12------------------------12/14---------------------14- 
A|-------------------------12-p10------------------------------------------| 
E|-------------------------------------------------------------------------| 


Cmaj7(x32000) 

e|---------15b17~~~~~~~~~~~15~~~~~~~~~~~13------12h13p12--------15------13-| 
B|-------------------------------------------------------15-13-------------| 
G|-12----------------------------------------------------------------------| 
D|-------------------------------------------------------------------------| 
A|-------------------------------------------------------------------------| 
E|-------------------------------------------------------------------------| 


Fmaj7(x33210) 

e|-12h13p12----------------------------------------------------------------| 
B|---------15--13------12h13p12----12--------------------------------------| 
G|------------------------------14------14~~~~~~~~~~~~~~\~~~2~~~/14\-------| 
D|-------------------------------------------------------------------------| 
A|-------------------------------------------------------------------------| 
E|-------------------------------------------------------------------------| 


Cmaj7(x32000) 
                          ( alternate picking... ) 
e|-------------------------------------------------------------------------| 
B|---------------------------------------------------------13-15----13-15-17- 
G|---------------------------------------12-15----12-14-16-------16--------| 
D|---------------------12-14----12-14-15-------15--------------------------| 
A|----12-14---12-14-15-------15--------------------------------------------| 
E|-15------15--------------------------------------------------------------| 


Fmaj7(x33210) 

e|-13------13--15-------15--/17--15--17---20--------19---------------------| 
B|-----17----------17---------------------------------------20~~-----------| 
G|----------------------------------------------------------------------19b21~ 
D|-------------------------------------------------------------------------| 
A|-------------------------------------------------------------------------| 
E|-------------------------------------------------------------------------| 


Cmaj7(x32000) 

e|-------------------------20~~~~~~~~~~~------------------------20---------| 
B|-20b22~~~~~~r20~~~~~b22~~-------------20b22~~~~~~~~~~~~~~~~~~~--------22~~~ 
G|-------------------------------------------------------------------------| 
D|-------------------------------------------------------------------------| 
A|-------------------------------------------------------------------------| 
E|-------------------------------------------------------------------------| 


Fmaj7(x33210) 

e|-------------------------------------------------------------------------| 
B|r20~~~~~~17--------------------------------------------------------------| 
G|-------------19b21r19-17-19~~~~~~~~\-------------------------------------| 
D|--------------------------------------/----------------------------------| 
A|--------------------------------------/----------------------------------| 
E|-------------------------------------------------------------------------| 


Cmaj7(x32000) 
03:34 
e|-20b22~~~~~~~~~~~~~~~~~~~20~~~~~~~~~~~17---------------------------------| 
B|----------------------------------------------20b22~~~~~~~~~~~\/---------| 
G|-------------------------------------------------------------------------| 
D|-------------------------------------------------------------------------| 
A|-------------------------------------------------------------------------| 
E|-------------------------------------------------------------------------| 


Fmaj7(x33210) 

e|-------------20b22~~~~~~~20~~17-------17h20p17----20---------------------| 
B|----------------------------------------------20----------20b22~~~~~~~~\/ 
G|-------------------------------------------------------------------------| 
D|-------------------------------------------------------------------------| 
A|-------------------------------------------------------------------------| 
E|-------------------------------------------------------------------------| 


Cmaj7(x32000) 

e|-------------20b22~~~~~~~20~~~~~~~~~~~17-h20-p17----17-------------------| 
B|-------------------------------------------------20----20---17-----------| 
G|----------------------------------------------------------19--19b21r19-17- 
D|-------------------------------------------------------------------------| 
A|-------------------------------------------------------------------------| 
E|-------------------------------------------------------------------------| 


Fmaj7(x33210) 

e|-------------------------------------------------------------------------| 
B|-------------------------------------------------------------------------| 
G|-19~~~~~~~~~~17h19p17----19--17------------------------------------------| 
D|---------------------19----------19---17---------------------------------| 
A|------------------------------------------19--18--17~~~~~~~~~~\----------| 
E|-------------------------------------------------------------------------| 


Cmaj7(x32000) 
03:46 
e|-------------------------------------------------------------------------| 
B|-------17----17----17----17--18--20---17--18--20--17--18--20--17--18--20-| 
G|-0-----------------------------------------------------------------------| 
D|-------------------------------------------------------------------------| 
A|-------------------------------------------------------------------------| 
E|-------------------------------------------------------------------------| 

 | 1 - x - x - 2 - x - x - 3 - x - x -| 1 - x - x - 2 - x - x - 3 - x - x -| 



Fmaj7(x33210) 

e|-----------------------------------------------------17h18p17------------| 
B|17-18-20-17h18h20-17h18h20-17h18h20-17-17-17-17h18h20-------20-18-17-----| 
G|--------------------------------------------------------------------19-21-19-17- 
D|-------------------------------------------------------------------------| 
A|-------------------------------------------------------------------------| 
E|-------------------------------------------------------------------------| 


Cmaj7

e|-------------------------------------------------------------------------| 
B|-------------------------------------------------------------------------| 
G|-21-17-19----17\16-17p16----16----------------------16-19~~~~~\-------0--| 
D|----------19-------------17----19p18p16----16h18h19----------------------| 
A|----------------------------------------19-------------------------------| 
E|-------------------------------------------------------------------------| 


Fmaj7 

e|-12----------------------------------------------------------------------| 
B|----15-13-12-------------------------------------------------------------| 
G|-------------14-12-10----------------------------------------------------| 
D|----------------------14-12-10-12-10-------------------------------------| 
A|-------------------------------------14-12-10-12-10----------------------| 
E|-----------------------------------------------------13-12--10--12--13/15\ 

 | 1 - x - x - 2 - x - x - 3 - x - x -| 1 - x - x - 2 - x - x - 3 - x - x -| 


Guitar Solo ends. To be continued... 


  
less
plus
Add to Songbook Print Version How to play lesson Submit videolesson
Click the best TAGS for this song:
None of them
Contributor: headtimo Correct

If you can not find the chords or tabs you want, look at our partner E-chords. If you are a premium member, you have total access to our video lessons.

If you find a wrong Bad To Me from Be Bop Deluxe, click the correct button above.

login/signup
my songbooks
my recent views
my submits