Bee Gees

This is where I came in tab

Bee Gees

Album:This is Where I Came in

Year:2001

tools Ultimate Tabs

Start AutoScroll Font Size Down Font Size Up

Find us on Facebook

chords
tabs
bass
ukulele keyboards
drums
flute
harmonica
guitar pro
video
Ultimate-Tabs

This is where I came in

ARTIST: Bee Gees
TITLE: This Is Where I Came In
ALBUM: This Is Where I Came In
TABBED BY: Martin Kelly


ACOUSTIC GUITAR INTRO + VERSES Two guitars left + Right

E----------------------------------------------------------------------------------------
B---------------------------------1------------------------------------------------------
G----------------------2--------0--------------------------------------------------------
D-----------0'2'0----2---2----2---------2-0'2--------------------------------------------
A------------------0--------3------------------------------------------------------------
E--0-3-2-0--------------------------0----------------------------------------------------

P.M--------------------------------------------

	After three repeats in verses, you play this three times

E--0-------0---------0--------0-----------------------------------------------------------
B--0-------2---------1--------0-----------------------------------------------------------
G--0-------2---------0--------0-----------------------------------------------------------
D--2-------2---------2--------2-----------------------------------------------------------
A--2-------0---------3--------2-----------------------------------------------------------
E--0-----------------0--------0-----------------------------------------------------------

P.M------------------------------

1. To this
		repeat twice
E--0-------0------------------0--------0--------------------------------------------------
B--0-------2------------------1--------0--------------------------------------------------
G--0-------2------------------0--------0--------------------------------------------------
D--2-------2------------------2--------2--------------------------------------------------
A--2-------0------------------3--------2--------------------------------------------------
E--0--------------------------0--------0--------------------------------------------------

PRE-CHORUS Hope Rides On

Acoustic						Repeat once
E--3-------------2-----------0---------0---------0----------------------------------------
B--0-------------3-----------0---------0---------1----------------------------------------
G--0-------------2-----------0---------0---------2----------------------------------------
D--0-------------0-----------2---------2---------2----------------------------------------
A--2-------------------------2---------2---------0----------------------------------------
E--3-------------------------0---------0--------------------------------------------------

Electric
E--------------------------------------0--------------------------------------------------
B--------------------------------------0--------------------------------------------------
G--------0-------------0-----------0---0--------------------------------------------------
D------5-------------4-----------2-----2--------------------------------------------------
A----5-------------5-----------5-------2--------------------------------------------------
E--------------------------------------0--------------------------------------------------

CHORUS All guitars
				Repeat twice
E--0--------0---------3-------0------------------------------------------------------------
B--0--------1---------0-------1------------------------------------------------------------
G--0--------0---------0-------2------------------------------------------------------------
D--2--------2---------0-------2------------------------------------------------------------
A--2--------3---------2-------0------------------------------------------------------------
E--0--------0---------3-------------------------------------------------------------------

BRIDGE

Acoustic			Repeat twice
E--0-----------0---------------------------------0----------------------------------------
B--0-----------2---------------------------------1----------------------------------------
G--0-----------2---------------------------------0----------------------------------------
D--2-----------2---------------------------------2----------------------------------------
A--2-----------0---------------------------------3----------------------------------------
E--0---------------------------------------------0----------------------------------------

Electric 2nd + 3rd time only
E-----------------------------------------------------------------------------------------
B------------------1517-17------------------------------------------------------------
G-----------------------------------------------------------------------------------------
D-----------------------------------------------------------------------------------------
A-----------------------------------------------------------------------------------------
E-----------------------------------------------------------------------------------------

ENDING Electric

E-----------------------------------------------------------------------------------------
B------------------1517----------------1517---------------1517----------------------
G-----------------------------------------------------------------------------------------
D-----------------------------------------------------------------------------------------
A-----------------------------------------------------------------------------------------
E-----------------------------------------------------------------------------------------

E-----------------------------------------------------1719--17--15----------------------
B-----------------1517--------------1517---------------------------17-----------------
G-----------------------------------------------------------------------------------------
D-----------------------------------------------------------------------------------------
A-----------------------------------------------------------------------------------------
E-----------------------------------------------------------------------------------------

E-----------------------------------------------------------------------------------------
B----------1517------1517-------1517--15-12-10-------------------------------1517-
G-----------------------------------------------------12-11-9--911--9-7-9---------------
D-----------------------------------------------------------------------------------------
A-----------------------------------------------------------------------------------------
E-----------------------------------------------------------------------------------------

fades out.

Think that covers everything. For more tabs contact [email protected]
less
plus
Add to Songbook Print Version How to play lesson Submit videolesson
Click the best TAGS for this song:
None of them
Contributor: thelrigh Correct

If you can not find the chords or tabs you want, look at our partner E-chords. If you are a premium member, you have total access to our video lessons.

If you find a wrong Bad To Me from Bee Gees, click the correct button above.

login/signup
my songbooks
my recent views
my submits