S Bee Gees

To Love Somebody bass

Bee Gees

Album:Their Greatest Hits: the Record

Year:2001

tools Ultimate Tabs

Start AutoScroll Font Size Down Font Size Up

Find us on Facebook

chords
tabs
bass
ukulele keyboards
drums
flute
harmonica
guitar pro video
Ultimate-Tabs

To Love Somebody

The Bee Gees - To Love Somebody bass tab off Bee Gees 1st in 1967


INTRO
G|----------------------------------|
D|----------------------------------|
A|-----------5----------------------|
E|-5-5--3-3----5--5--5-5--5--5-5----|

VERSE   play 2X's
G|-------------------------------------------------------------------------|
D|-------------------------------------------------------------------------|
A|----------2---2-2--5---5-5----------------------------7---7-7---5----5-5-|
E|-5---5-5--------------------5--5-5--3---3-3--5---5-5---------------------|

CHORUS
G|--------------------------------------------------------------------------|
D|--------------------------------------------------------------------------|
A|-----------------7-7-7-7-7-7-7-5-5-5-5-5-5-5----7---7-7--5---5-5----------|
E|-5-5-5-5-5-5-5-5-----------------------------5--------------------5---5-5-|

play INTRO,VERSE than CHORUS here

BRIDGE
G|--------------------------------------------------------------------------|
D|--------------------------------------------------------------------------|
A|--7-7-7-7-7-7-----------7-7-7-7-7-7-------------7---7-7--5---5-5----------|
E|-------------5-5-5-5-5-5------------5-5-5-5-5-5-------------------5---5-5-|

play CHORUS here
less
plus
Add to Songbook Print Version How to play lesson Submit videolesson
Click the best TAGS for this song:
None of them
Contributor: pmonblin Correct

If you can not find the chords or tabs you want, look at our partner E-chords. If you are a premium member, you have total access to our video lessons.

If you find a wrong Bad To Me from Bee Gees, click the correct button above.

login/signup
my songbooks
my recent views
my submits