Bee Gees

Wedding Day tab

Bee Gees

Album:Love Songs

Year:2005

tools Ultimate Tabs

Start AutoScroll Font Size Down Font Size Up

Find us on Facebook

chords
tabs
bass
ukulele keyboards
drums
flute
harmonica
guitar pro
video
Ultimate-Tabs

Wedding Day

ARTIST: Bee Gees
TITLE: Weddding Day
ALBUM: This Is Where I Came In
TABBED BY: Martin Kelly

ACOUSTICS - Barry + Maurice Gibb
ELECTRIC - Alan Kendall

ACOUSTIC PARTS


INTRO - After 17 seconds = G

VERSE

D  A  G  D  A

PRE-CHORUS

D  A  G  D  A  G

CHORUS

D  Bm  G  A  D  Bm  G  G

1. D  A  G
2. D

MIDDLE 8 with ELECTRIC

Bb  C  D  Bb  C  Em  A


ELECTRIC PARTS

CHORUS 3
E-----------------------------------------------------------------------------------------
B----------------1012---10-8-7--------------------------8/10--8-7-----------------------
G--7-----------------------------9-7---------9--9/11/9--------------9-7--7----------------
D--7---------------------------------------------------------------------7----------------
A--5---------------------------------------------------------------------5----------------
E-----------------------------------------------------------------------------------------

E-----------------------------------------------------------------------------------------
B-----------------------------------------------------------------------------------------
G--4------------------------11-9-7-9------------------------------------------------------
D--4------------5-------------------------------------------------------------------------
A--2------------5-------------------------------------------------------------------------
E---------------3-------------------------------------------------------------------------

CODA

Harmonics
E-----------------------------------------------------------------------------------------
B---------------------7-----------------------------------------------------------------
G--------7-----------------7----------------------------------------------------------
D-----------------------------------------------------------------------------------------
A-----------------------------------------------------------------------------------------
E-----------------------------------------------------------------------------------------


For a list of tabs contact [email protected]
less
plus
Add to Songbook Print Version How to play lesson Submit videolesson
Click the best TAGS for this song:
None of them
Contributor: Vipetens Correct

If you can not find the chords or tabs you want, look at our partner E-chords. If you are a premium member, you have total access to our video lessons.

If you find a wrong Bad To Me from Bee Gees, click the correct button above.

login/signup
my songbooks
my recent views
my submits