Billie Eilish

Happier Than Ever chords

Billie Eilish

tools Ultimate Tabs

Start AutoScroll Font Size Down Font Size Up

Find us on Facebook

chords
tabs
bass
ukulele keyboards
drums
flute
harmonica
guitar pro
video
Ultimate-Tabs

Happier Than Ever

FINNEAS' Fingerstyle Rhythm
    Cadd9         C      Cadd9                 C
e|----------------------------------------------------------------------|
B|-------3--------1---------------3---3------------1--------------------|
G|-------0--------0---------------0---0------------0--------------------|
D|--------------------2-------2------------2----------------------------|
A|---3--------3-----------3--------------------3--------3---------------|
E|----------------------------------------------------------------------|
    E7
e|----------------------------------------------------------------------|
B|----------------------------------------------------------------------|
G|-----------1----------------1----------------1---------------1--------|
D|-------0-------0--------0--------0-------0-------0-------0-------0----|
A|-----------2----------------2----------------2---------------2--------|
E|---0----------------0----------------0------------ --0----------------|
          A7sus4            Am7             Asus2     Am7
e|----------------------------------------------------------------------|
B|-----------3---------------1----------------0--------1-------1--------|
G|-------0-------0-------0-------0-------0---------0--------------------|
D|---2-------2-------2-------2-------2--------2------------2------2-----|
A|----------------------------------------------------------------------|
E|----------------------------------------------------------------------|
    Dm                             G   G7
e|-----------1--------1------------3----1-------------------------------|
B|-----------3--------3------------3----0-------------------------------|
G|-------2-------2------------2----0----0-------------------------------|
D|---0-------------------0---------0----0-------------------------------|
A|----------------------------------------------------------------------|
E|---------------------------------3----3-------------------------------|

Chorus 1
N.C.     Cadd9
When I'm away from you
                  E7
I'm happier than ever
                     Am7
Don't you think it's ever
                     Dm   G
Don't you think it's Bettttter

Chorus 2 - A cappella
N.C.     Cadd9
When I'm away from you
                 E7
I'm happier than ever
                         Am7
Wish I could explain it better
                Dm  G
Wish it wasn't truuuue
less
plus
Add to Songbook Print Version How to play lesson Submit videolesson
Click the best TAGS for this song:
None of them
Contributor: Anonymous Correct

If you can not find the chords or tabs you want, look at our partner E-chords. If you are a premium member, you have total access to our video lessons.

If you find a wrong Bad To Me from Billie Eilish, click the correct button above.

login/signup
my songbooks
my recent views
my submits