Billie Eilish

Your Power chords

Billie Eilish

tools Ultimate Tabs

Start AutoScroll Font Size Down Font Size Up

Find us on Facebook

chords
tabs
bass
ukulele keyboards
drums
flute
harmonica
guitar pro
video
Ultimate-Tabs

Your Power

***Please Note: Feel free to substitute G for G6 (320000) if you prefer the voicing. Either chord is cool.*** 

Intro - Main Acoustic Hook
   Fmaj7             Am       Em         Fmaj7             Am    G
e|-------------------------------------|-------------------------------------|
B|--13----12----5---6\5----8---0-------|--13----12----5---6\5----3---3/5-----|
G|--14----12----5---7\5----9---0-------|--14----12----5---7\5----4---4/5-----|
D|-------------------------------------|-------------------------------------|
A|-------------------------------------|-------------------------------------|
E|-------------------------------------|-------------------------------------|   

   Fmaj7             Am        Em        Fmaj7           Am    G
e|-------------------------------------|-------------------------------------|
B|--13----12----5---6\5----8---0-------|--/5--5---5---3---3~---0-------------|
G|--14----12----5---7\5----9---0-------|--/5------5---4---4~---0-------------|
D|-------------------------------------|-------------------------------------|
A|-------------------------------------|-------------------------------------|
E|-------------------------------------|-----------------------3-------------|

Chorus
Fmaj7           Am         Em
    Try not to abuse your power
Fmaj7                   Am      G
    I know we didn't choose to change
Fmaj7                      Am      Em
    You might not want to lose your power
Fmaj7           Am       G
     But having it's so strange

Verse 1
    Fmaj7                 Am             Em
She said you were a hero, you played the part
        Fmaj7                       Am                 G
But you ruined her in a year, don't act like it was hard
        Fmaj7
And you swear you didn't know (didn't know, didn't know)
         Am             Em
No wonder why you didn't ask
          Fmaj7
She was sleeping in your clothes (in your clothes)
              Am             G
But now she's got to get to class

Pre-Chorus
    N.C.
How dare you
Fmaj7            Am   Em
   And how could you
                  Fmaj7
Will you only feel bad when they find out
                         Am    G
If you could take it all back
 N.C.
Would you?

Chorus
Fmaj7           Am         Em
    Try not to abuse your power
Fmaj7                   Am      G
    I know we didn't choose to change
Fmaj7                      Am       Em
    You might not want to lose your power
Fmaj7           Am       G
     But having it's so strange

Verse 2
Fmaj7
I thought that I was special
Am           Em                 Fmaj7
You made me feel like it was my fault
                     Am         G 
You were the devil, lost your appeal
        Fmaj7
Does it keep you in control (in control)
            Am              Em
For you to keep her in a cage
        Fmaj7
And you swear you didn't know (didn't know)
               Am                  G
You said you thought she was your age

Pre-Chorus
    N.C..
How dare you
Fmaj7             Am   Em
   And how could you?
                  Fmaj7                                        Am     G
Will you only feel bad if it turns out, that they kill your contract
 N.C.
Would you?

Chorus
Fmaj7           Am         Em
    Try not to abuse your power
Fmaj7                   Am        G
    I know we didn't choose to change
Fmaj7                      Am       Em
    You might not want to lose your power
Fmaj7                 Am       G
     But power isn't pain

Outro - Main Acoustic Hook
   Fmaj7             Am       Em         Fmaj7             Am    G
e|-------------------------------------|-------------------------------------|
B|--13----12----5---6\5----8---0-------|--13----12----5---6\5----3---3/5-----|
G|--14----12----5---7\5----9---0-------|--14----12----5---7\5----4---4/5-----|
D|-------------------------------------|-------------------------------------|
A|-------------------------------------|-------------------------------------|
E|-------------------------------------|-------------------------------------|   

   Fmaj7             Am        Em        Fmaj7           Am    G
e|-------------------------------------|-------------------------------------|
B|--13----12----5---6\5----8---0-------|--/5--5---5---3---3~---0-------------|
G|--14----12----5---7\5----9---0-------|--/5------5---4---4~---0-------------|
D|-------------------------------------|-------------------------------------|
A|-------------------------------------|-------------------------------------|
E|-------------------------------------|-----------------------3-------------|
less
plus
Add to Songbook Print Version How to play lesson Submit videolesson
Click the best TAGS for this song:
None of them
Contributor: Anonymous Correct

If you can not find the chords or tabs you want, look at our partner E-chords. If you are a premium member, you have total access to our video lessons.

If you find a wrong Bad To Me from Billie Eilish, click the correct button above.

login/signup
my songbooks
my recent views
my submits