Billy Joel

You May be Right bass

Billy Joel

Album:Greatest Hits Volume I and II

Year:1985

tools Ultimate Tabs

Start AutoScroll Font Size Down Font Size Up

Find us on Facebook

chords tabs
bass
ukulele keyboards
drums
flute
harmonica
guitar pro video
Ultimate-Tabs

You May be Right

You may be right - Billy Joel
**This is not exact to the bass recording, BUT it will get you started
**and will work fine for a band setting.  Feel free to improvise and
**add fills and octaves to enhance the performance.

Intro
A (x2) whole notes
 
Verse
   A         (x3)     E             B            G            E             A
G|--------------|-----------------|------------|------------|-------------|-----------|
D|*------------*|-----------------|------------|------------|-------------|-----------|
A|*------------*|--45-7-77--7-775-|----9-9-----|----5-5-----|----2--2-----|-----------|
E|-5-55--5-55-0-|-5---------------|-7-7---7-775|-3-3---3-332|-0-0----0-003|-5-55-5-55-|

Verse

Chorus                           E     D    F#    A
G|--------------|--------------|---------------------|
D|--------------|-----2242-----|---------------------|
A|-----2242-----|-0034----0r---|-7-77--5-55----------| 
E|-0034----0r---|--------------|------------2-22-45r-|  

                                 D     E    A           
G|--------------|--------------|----------------------|
D|--------------|-----2242-----|----------------------|
A|-----2242-----|-0034----0r---|-5-55--7-77-----------| 
E|-0034----0r---|--------------|------------5-55-5-55-| 

Verse
Chorus
Lead Break (verse)
Chorus
Outro 
   A        
G|---------------|
D|*--7--7--7--7-*|
A|*-------------*|
E|-5--5--5--5----|
less
plus
Add to Songbook Print Version How to play lesson Submit videolesson
Click the best TAGS for this song:
None of them
Contributor: half1478 Correct

If you can not find the chords or tabs you want, look at our partner E-chords. If you are a premium member, you have total access to our video lessons.

If you find a wrong Bad To Me from Billy Joel, click the correct button above.

login/signup
my songbooks
my recent views
my submits