Billy Ocean

Caribbean Queen bass

Billy Ocean

tools Ultimate Tabs

Start AutoScroll Font Size Down Font Size Up

Find us on Facebook

chords tabs
bass
ukulele keyboards
drums
flute
harmonica
guitar pro video
Ultimate-Tabs

Caribbean Queen

Caribbean Queen (No More Love on the Run)
Artist: Billy Ocean
Album: Suddenly (1984)
Tabbed by LoudLon
[email protected]

Standard tuning EADG

INTRO:
      
        (drums)                                                     * Pop it!
G |-----------------|-----------------|-----------------|-----------------|
D |-----------------|-----------------|-----------------|-----------8*----|
A |-----( REST )----|-5-----3---5-5-3-|-5-----035-5-3-5-|-----------------|
E |-----------------|-----------------|-----------------|-5-5-5-6---------|
    1 & 2 & 3 & 4 &   1 & 2 & 3 & 4 &   1 & 2 & 3 & 4 &   1 & 2 & 3 & 4 &


                     (--------------- x2 ---------------)
G |-----------------|-----------------|-----------------|
D |-----------------|-----------------|-----------------|
A |-----------------|-5-3-0-0-3-3-0-3-|-5-3-0-0-3-3-0-3-|
E |-6-6-6-8---------|-----------------|-----------------|
    1 & 2 & 3 & 4 &   1 & 2 & 3 & 4 &   1 & 2 & 3 & 4 &  


VERSE 1 (x4)


G |-----------------|-----------------|-----------------|-----------------|
D |-----------------|-----------------|-----------------|-----------------|
A |-5-3-0-0-3-3-0-3-|-5-3-0-0-3-3-0-3-|-5-3-0-0-3-3-0-3-|-5-3-0-0-3-3-0-3-|
E |-----------------|-----------------|-----------------|-----------------|
    1 & 2 & 3 & 4 &   1 & 2 & 3 & 4 &   1 & 2 & 3 & 4 &   1 & 2 & 3 & 4 &


CHORUS

G |-----------------|-----------------|-----------------|-----------------|
D |-----------------|-----------------|-----------------|-----------------|
A |-5-5-3-0-5-5-0-5-|-3-3-0---3-3---3-|-1-1-----1-1---1-|-0-0-----0-0-----|
E |-----------------|-------3-----3---|-----3-1-----1---|-----3-1-----3-1-|
    1 & 2 & 3 & 4 &   1 & 2 & 3 & 4 &   1 & 2 & 3 & 4 &   1 & 2 & 3 & 4 &


G |-----------------|-----------------|-----------------|-----------------|
D |-----------------|-----------------|-----------------|-----------------|
A |-----------------|---------3-3-0-3-|-5-3-0-0-3-3-0-3-|-5-3-0-0-3-3-0-3-|
E |-3-3-3-3-3-3-5-5-|-6-6-6-6---------|-----------------|-----------------|
    1 & 2 & 3 & 4 &   1 & 2 & 3 & 4 &   1 & 2 & 3 & 4 &   1 & 2 & 3 & 4 &


VERSE 2(x4)


G |-----------------|-----------------|-----------------|-----------------|
D |-----------------|-----------------|-----------------|-----------------|
A |-5-3-0-0-3-3-0-3-|-5-3-0-0-3-3-0-3-|-5-3-0-0-3-3-0-3-|-5-3-0-0-3-3-0-3-|
E |-----------------|-----------------|-----------------|-----------------|
    1 & 2 & 3 & 4 &   1 & 2 & 3 & 4 &   1 & 2 & 3 & 4 &   1 & 2 & 3 & 4 &


BRIDGE

    "I was in search..."
G |-----------------|-----------------|-----------------|-----------------|
D |-----------------|-----------------|-----------------|-----------------|
A |-1-1-----1-1-----|-3-3-0---3-3-0---|-1-1-----1-1-----|-3-3-0---3-3-0---|
E |-----3-1-----3-1-|-------3-------3-|-----3-1-----3-1-|-------3-------3-|
    1 & 2 & 3 & 4 &   1 & 2 & 3 & 4 &   1 & 2 & 3 & 4 &   1 & 2 & 3 & 4 &


G |-----------------|-----------------|-----------------|-----------------|
D |-----------------|-----------------|-----------------|-----------------|
A |-1-1-----1-1-----|-3-3-0---3-3-0-3-|-5-3-0-0-3-3-0-3-|-5-3-0-0-3-3-0-3-|
E |-----3-1-----3-1-|-------3---------|-----------------|-----------------|
    1 & 2 & 3 & 4 &   1 & 2 & 3 & 4 &   1 & 2 & 3 & 4 &   1 & 2 & 3 & 4 &


- Repeat CHORUS x2
- Saxophone solo -- repeat VERSE riff x 4
- Repeat CHORUS to fade out
less
plus
Add to Songbook Print Version How to play lesson Submit videolesson
Click the best TAGS for this song:
None of them
Contributor: lissgabb Correct

If you can not find the chords or tabs you want, look at our partner E-chords. If you are a premium member, you have total access to our video lessons.

If you find a wrong Bad To Me from Billy Ocean, click the correct button above.

login/signup
my songbooks
my recent views
my submits