Black Keys

Weight Of Love bass

Black Keys

tools Ultimate Tabs

Start AutoScroll Font Size Down Font Size Up

Find us on Facebook

chords tabs
bass
ukulele keyboards
drums
flute
harmonica
guitar pro
video
Ultimate-Tabs

Weight Of Love

-------------------------------------------------------------------------------
                             WEIGHT OF LOVE - The Black Keys
-------------------------------------------------------------------------------


Tuning: Standard

Intro (Bass at 0:40) This is also the first guitar solo, but then the first part only repeats 2x.

G|-----------------------------------------------------------------|
D|-----------------------------------------------------------------|4X
A|7---------------------------0------------------------------------|
E|-----------------------------------------------------------------|

G|----9-9--9-9h11p9------------------------------------------------|
D|---------------------9-------------------------------------------|4X
A|7---------------------------0------------------------------------|
E|-----------------------------------------------------------------|

G|-----------------------------------------------------------------|
D|-----------------------------------------------------------------|
A|7----------------------------------------------------------------|
E|-----------------------------------------------------------------|

G|-----------------------------------------------------------------|
D|-----------------------------------------------------------------|
A|------------------------------------------------------------7-10-|
E|-----------------------------------------------------------------|

Interlude

G|--------9-7-9-------9-7----------------------------7/9\7---------|
D|------9------------9------9------9---7-9-------9-------------9---|
A|7----------------------------------------------------------------|
E|-----------------------------------------------------------------|

G|------------7-7-7------------7-7-7\5-----5-5-5-------------------|
D|7----------------------------------------------------------------|2X
A|---------5--------5-------5------------3-------3---------3--5----|
E|-----------------------------------------------------------------|

Verse

G|-----------------------------------------------------------|
D|---------7-7-7-------7-7-7----------5-5-5---------5-5-5----|
A|-------7--------------------------5------------------------|
E|5-----------------5--------5-3----------------3----------3-|

G|---------7-7-7-7-----7-7-7----------5-5-5------------------|
D|-------7--------------------------5--------------5---------|
A|5-----------------5--------5-3-----------------------3-----|
E|-----------------------------------------------------------|

G|-----------------------------------------------------------|
D|---------7-7-7-------7-7-7----------5-5-5---------5-5-5----|
A|-------7--------------------------5------------------------|
E|5-----------------5--------5-3----------------3----------3-|

G|---------7-7-7-7-----7-7-7----------5-5-5------------------|
D|-------7--------------------------5------------------------|
A|5-----------------5--------5-3------------5----0---3----5--|
E|-----------------------------------------------------------|

Chorus and 2nd Guitar Solo

G|------------------------------------------------------------|
D|------------------------------------------------------------|
A|7--7--7---7-7----7-7---7-7-7-7-5-5-5-5-5--3-5--5-5--5-5-5-5-|
E|------------------------------------------------------------|

G|------------------------------------------------------------|
D|------------------------------------------------------------|
A|------------------------------------------------------------|
E|5--5--5--5-5-----5-5----5-5-5--3--3--3--3-3-----3--3--3-3-3-|

Outro:

G|----99997--------------8-8-8-------77775--------------6------7-8|
D|----------9-7-5-7---------8--------------7-5-3-5----------------|
A|7-----------------6-------------5----------------4--4----4/5--6-|
E|----------------------------------------------------------------|

G|----99997----------------8-8--------7-7-7-------6666--6-6-------|
D|----------9-7-5-7---------8------------7------------------------|
A|7-----------------6------------6-5---------5-4--------------4---|
E|----------------------------------------------------------------|

G|-------------------------------------------------9--------------|
D|---------6------------------6-----------------------------------|
A|---------------------------------------7------------------------|
E|4-----------------4---------------------------------------------|

G|----------------------------9-----------------------------------|
D|---------6------------------------------------------------------|
A|------------------7---------------------------------------------|
E|4--------------------------------------4------------------------|


| /  slide up
| \  slide down
| h  hammer-on
| p  pull-off
===============================================================================
less
plus
Add to Songbook Print Version How to play lesson Submit videolesson
Click the best TAGS for this song:
None of them
Contributor: Dr_psono Correct

If you can not find the chords or tabs you want, look at our partner E-chords. If you are a premium member, you have total access to our video lessons.

If you find a wrong Bad To Me from Black Keys, click the correct button above.

login/signup
my songbooks
my recent views
my submits