S Black Label Society

Lost My Better Half tab

Black Label Society

Album:Sonic Brew

Year:1999

tools Ultimate Tabs

Start AutoScroll Font Size Down Font Size Up

Find us on Facebook

chords
tabs
bass
ukulele
keyboards
drums
flute
harmonica
guitar pro
video
Ultimate-Tabs

Lost My Better Half

Drop A tuning: low to high - A,A,D,G,B,e 
 
--------------------------------------------------------|----------|----------- 
--------------------------------------------------------|----------|----------- 
--------------------------------------------------------|----------|----------- 
--------------------------------------------------------|----------|-ph-ph-ph-- 
--------------------------------------------------------|-ph-ph-ph-|-7~-6~-5~-- 
-0000-0-0-0-0-0000-0-0-0-0-3~-3~--0000-0-0-0-0-0000-0-0-|-7~-6~-5~-|----------- 
 intro riff                                               1st time   2nd time 
 
------------------------------------------------------------------------------- 
------------------------------------------------------------------------------- 
------------------------------------------------------------------------------- 
------------------------------------------------------------------------------- 
------------------------------------------------------------------------------- 
-0000-0-0-0-0-0000-0-0-0-0-3~-3~--0000-0-0-0-0-0000-0-0------------------------ 
 verse riff 
 
------------------------------------------------------------------------------- 
------------------------------------------------------------------------------- 
------------------------------------------------------------------------------- 
------------------------------------------------------------------------------- 
---------------------------------------------------------7--6--5--------------- 
-0000-0-0-0-0-0000-0-0-0-0-3~-3~--0000-0-0-0-0-0000-0-0------------------------ 
 verse riff (con't)                                      w/wah 
 
------------------------------------------------------------------------------- 
------------------------------------------------------------------------------- 
------------------------------------------------------------------------------- 
------------------------------------------------------------------------------- 
------------------------------------------------------------------------------- 
-10h12~-10h12~-12h14~-12h14~-12-14h15p14\12-14p12~--8~-8~-7~-7~-8/10-8/10------ 
 pre-Chorus riff 
 
---------------------|------------------|-------------------------------------- 
---------------------|------------------|-------------------------------------- 
---------------------|------------------|-------------------------------------- 
---------------------|------------------|-10h12-10h12-10h12-10h12-10----------- 
---------------------|------------------|----------------------------12-10----- 
-10h12-10-12-x-10h12-|-10-12--10h12-10~-|-------------------------------------- 
 Chorus riff (w/wah)   1st,3rd,5th time   2nd, 6th time 
 
---------------------|---------------|----------------------------------------- 
---------------------|----------ph---|----------------------------------------- 
---------------------|----------5~---|----------------------------------------- 
---------------------|--------5------|----------------------------------------- 
---------------------|-5-6-7---------|----------------------------------------- 
-10h12-10-12-x-10h12-|---------------|----------------------------------------- 
 Chorus riff (con't)   4th time 
 
------------------------------------------------------------------------------- 
------------------------------------------------------------------------------- 
------------------------------------------------10~---------9~----------------- 
------------------------------------------------10~---------9~----------------- 
------------------------------------------------------------------------------- 
-10h12-10-12-x-10h12--10-12--10h12-10~--8~---8--------7~--7------7-5~---------- 
 Chorus ending riff (7th time)         "Lord I feel I've lost my better half" 
 
 Transcribed by: Bill Addis 
Email: [email protected] 
From:  www.blacklabelsociety.net 
 

 
less
plus
Add to Songbook Print Version How to play lesson Submit videolesson
Click the best TAGS for this song:
None of them
Contributor: rmt3bobb Correct

If you can not find the chords or tabs you want, look at our partner E-chords. If you are a premium member, you have total access to our video lessons.

If you find a wrong Bad To Me from Black Label Society, click the correct button above.

login/signup
my songbooks
my recent views
my submits