Blink 182

After Midnight (acoustic) chords

Blink 182

tools Ultimate Tabs

Start AutoScroll Font Size Down Font Size Up

Find us on Facebook

chords
tabs
bass
ukulele keyboards
drums
flute
harmonica
guitar pro
video
Ultimate-Tabs

After Midnight (acoustic)

Intro 

Part 1 
e|--------------------------------------------| 
B|--------------------------------------------| 
G|---7-7-7-7-7-7-7-7---4-4-4-4---5-5-5-5------| 
D|---5-5-5-5-5-5-5-5---5-5-5-5---5-5-5-5------| 
A|---0-0-0-0-0-0-0-0---0-0-0-0---0-0-0-0------| 
E|--------------------------------------------| 

Part 2 
e|--------------------------------------------| 
B|--------------------------------------------| 
G|---7-7-7-7-7-7-7-7---5---5-----5---5--------| 
D|---5-5-5-5-5-5-5-5---5---5-----5---5--------| 
A|---0-0-0-0-0-0-0-0---0---0-----0---0--------| 
E|--------------------------------------------| Repeat part 1&2 together x4 

e|--------------------------------------------| 
B|--------------------------------------------| 
G|---7-7-x-7-7-x-x-x-x-7-7-7-x-7-7------------| 
D|---7-7-x-7-7-x-x-x-x-7-7-7-x-7-7------------| 
A|---5-5-x-5-5-x-x-x-x-5-5-5-x-5-5------------| 
E|--------------------------------------------| 
verse 1 A E I can't get my feet up off the edge F#m I kinda like the little rush you get D When you're standing close to death Like when you're driving me crazy A E Hold on as we crash into the earth F#m D A bit of pain will help you suffer when you're hurt for real Cuz you're driving me crazy Pre Chorus F#m By your lips, the word's a robbery D Do you grin inside? You're killing me A All along we talked of forever E I kinda think that we won't get better F#m D It's the longest start, but the end's not too far away Did you know? I'm here to stay A We'll stagger home after midnight E Sleep arm and arm in the stairwell F#m We'll fall apart on the weekend D These nights go on and on and on A, E, F#m, D, D Do your last D like this
e|---5---| 
B|---3---| 
G|---2---| 
D|-------| 
A|-------| 
E|-------| 
verse 2 A E I can't get your voice out of my head F#m All I hear are the many echoes of D The darkest words you said And it's driving me crazy A E I can't find the best in all of this F#m But I'm always looking out for you D Cuz you're the one I miss And it's driving me crazy Pre chorus F#m By your lips, the word's a robbery D Do you grin inside? You're killing me A All along we talked of forever E I kinda think that we won't get better F#m It's the longest start, but the end's not too far away D Did you know? I'm here to stay A We'll stagger home after midnight E Sleep arm and arm in the stairwell F#m We'll fall apart on the weekend D These nights go on and on and on A We'll stagger home after midnight E Sleep arm and arm in the stairwell F#m We'll fall apart on the weekend D These nights go on and on and on Interlude A, E, F#m, D x3 A, E, F#m, D, D Do your last D like this
e|---5---| 
B|---3---| 
G|---2---| 
D|-------| 
A|-------| 
E|-------| 
Chorus A We'll stagger home after midnight E Sleep arm and arm in the stairwell F#m We'll fall apart on the weekend D These nights go on and on and on A We'll stagger home after midnight E Sleep arm and arm in the stairwell F#m We'll fall apart on the weekend D A These nights go on and on and on End A, E, F#m, D, D, A Do your last D like this e|---5---| B|---3---| G|---2---| D|-------| A|-------| E|-------|
less
plus
Add to Songbook Print Version How to play lesson Submit videolesson
Click the best TAGS for this song:
None of them
Contributor: hapcleek Correct

If you can not find the chords or tabs you want, look at our partner E-chords. If you are a premium member, you have total access to our video lessons.

If you find a wrong Bad To Me from Blink 182, click the correct button above.

login/signup
my songbooks
my recent views
my submits