tools Ultimate Tabs

Start AutoScroll Font Size Down Font Size Up

Find us on Facebook

Ultimate-Tabs

Aliens Exist

E|------------------------------- 
B|------------------------------- 
G|------------------------------- 
D|------------------------------- 
A|-2-2-2-2-2-2-2-2----2----------    
E|------------------------------- 
 
Hey mom, there's something in the backroom. Hope it's not the creatures from above.  
You used to read me stories, as if my dreams were boring, we all know conspiracies are dumb.  (DO A SLIDE) 
 
INTERLUDE:  B5   E5   G#5   E5  (2 times) 
 
VERSE 2: (Palm-mute all chords) 
B5             F#5                  G#5    E5  B5           
What if people knew that these were real?      I leave my closet  
F#5           G#5    E5  B5           C#5          G#5 
door open all night.     I know the CIA would say, what your hear 
   E5            B5                 F#5              G#5 
is all hear-say. Wish someone would tell me what was right. 
 
Chorus: 
B5            F#5               B5             F#5               
Up, all night long. And there's something very wrong. And I  
   know    it      must    be      late                      been  gone    since   yes  -  ter  -  day.                 ... 
E|------------------------------------------------------------------------------------------------------------------------| 
B|------------------------------------------------------------------------------------------------------------------------| 
G|------------------------------------------------------------------------------------------------------------------------| 
D|-1-1-----1-1-----1-1-----1-1-----2-2-----2-2-----2-2-----2-2-----1-1-----1-1-----1-1-----1-1-----2-2-----2-2-----2-2----| 
A|-----2-------2-------2-------2-------2-------2-------2-------2-------2-------2-------2-------2-------2-------2-------2--| 
E|------------------------------------------------------------------------------------------------------------------------| 
 
Now play this: 
 
   I'm  not   like  you  guys.          I'm  not   like  you. 
E|-----------------------------------------------------------| 
B|-----------------------------------------------------------| 
G|-----------------------------------------------------------| 
D|-----------------------------------------------------------| 
A|-----------------------2-----------------------------------| 
E|-2----------0-------------------------2----------0---------| 
 
INTERLUDE:  B5   E5   G#5   E5   (2 times) 
 
VERSE 3: (Play like VERSE 2) 
I am still the skeptic yes you know me. Been best friends and will be till we die. 
I got an injection, of fear from the abduction. My best friend thinks I'm just telling lies.  Alright. 
 
Chorus: (Play like first Chorus) 
Up, all night long, and there's something very wrong. And I know it must be late,  
been gone since yesterday. I'm not like you guys. I'm not like you. 
 
BRIDGE:    B5*        D#5*    C#5*    E5*    D#5* 
G#5             F#5       E5            B5   F#5 
Dark and scary, ordinary, explanations, information. 
D#5*             C#5       E5*                D#5*  C#5* 
Nice to know ya. Paranoia. Where's my mother, Bio - father? 
 
Chorus: (Play like previous Choruses) 
Up all night long, and there's something very wrong, and I know it must be late,  
been gone since yesterday. I'm not like you guys.  
F#5       E2      B5 
Twelve  majestic  lies. 
 
 
Verso 2: 
 
Transcribed by Effigy - [email protected] 
 
Intro: Rhy. Fig. 1   w/light distortion and possibly low speed/depth phasing 
  B          F# 
e------------------------ 
B------------------------ 
G-4-4--4-4-4-----------4- 
D-4-4--4-4-4-4--4-4--4-4- 
A-2-2--2-2-2-4--4-4--4-2- 
E------------2--2-2--2--- 
 
Riff A:   w/heavy dist                             
e-|--------------------------------------------------|-- 
B-|--------------------------------------------------|-- 
G-|o----------8-----------8-----------8-------------o|-- 
D-|o----9-----------9-----------9-----------9-----9-o|9- 
A-|-------------------------7-7---7-7---9-9---9-9----|9- 
E-|-7-7---7-7---7-7---7-7----------------------------|7- 
 
Note: In order to play this riff easily, keep your pinkie finger on the D string 
 and your middle finger on the G string throughout while using your index finger 
  to play the 7s and your ring finger to play the 9s. 
 
Verse: Rhy. Fig. 2   w/heavy dist 
  B         E       F# 
e---------------------------------- 
B---------------------------------- 
G-----------9-9-9-9-11-11-11-11---- 
D-9--9-9-9--9-9-9-9-11-11-11-11---- 
A-9--9-9-9--7-7-7-7--9--9--9--9---- 
E-7--7-7-7------------------------- 
 
Chorus: Rhy. Fig. 3   w/heavy dist 
   Eb                E               B               F#*                 x3 
e--------------------------------------------------------------------- 
B--------------------------------------------------------------------- 
G--8-8-8-8-8-8-8-8-8/9-9-9-9-9-9-9-9-4-4-4-4-4-4-4-4------------------ 
D--8-8-8-8-8-8-8-8-8/9-9-9-9-9-9-9-9-4-4-4-4-4-4-4-4-4-4-4-4-4-4-4-4-- 
A--6-6-6-6-6-6-6-6-6/7-7-7-7-7-7-7-7-2-2-2-2-2-2-2-2-4-4-4-4-4-4-4-4-- 
E----------------------------------------------------2-2-2-2-2-2-2-2-- 
 
   Eb                E               B               F#(type 2)** 
e--------------------------------------------------------------------- 
B----------------------------------------------------7-7-7-7-7-7-7-7-- 
G--8-8-8-8-8-8-8-8-8/9-9-9-9-9-9-9-9-4-4-4-4-4-4-4-4-6-6-6-6-6-6-6-6-- 
D--8-8-8-8-8-8-8-8-8/9-9-9-9-9-9-9-9-4-4-4-4-4-4-4-4-4-4-4-4-4-4-4-4-- 
A--6-6-6-6-6-6-6-6-6/7-7-7-7-7-7-7-7-2-2-2-2-2-2-2-2-4-4-4-4-4-4-4-4-- 
E--------------------------------------------------------------------- 
*I'm not 100% sure that this is the correct chord, C# also sounds good 
  here.. try both and decide which you like 
**I switched to the different voicing of the chord here because 
  I feel it helps emphasize the lyrics in the last line, the 
  difference is small but slightly noticeable. This chord also is not 
  necessarily an F#, it could also be a B :) 
 
Riff B:   w/heavy dist 
e-------------------------------------------------- 
B-------------------------------------------------- 
G------8-----8-----8-----8-----8-----8-----8------- 
D------------------------------------------------9- 
A--------------------------7-7---7-7---9-9---9-9--- 
E--7-7---7-7---7-7---7-7--------------------------- 
 
Note: Mute all the notes on the A and E strings. 
 
 
Here's how it all comes together: 
Rhy Fig. 1x8 
Riff A 
Rhy. Fig. 2 x2 
Riff A 
Rhy. Fig. 2 x2 
Rhy. Fig. 3 
Riff A 
Riff B x2 
Rhy. Fig. 2 x2 
Rhy. Fig. 3 
Rhy. Fig. 1 x8 
Rhy. Fig. 3 
 
 
Letra: 
====== 
 
Hey mom there's something in the backroom 
I hope it's not the creature from above 
You used to read me stories 
As if my dreams were boring 
We all know conspiracies are dumb 
What if people knew that these were real 
I'd leave my closet door open all night 
I know the CIA would say 
What you hear is all hearsay 
I wish someone would tell me what was right 
Up all night long 
And there's something very wrong 
And I know it must be late 
Been gone since yesterday 
I'm not like you guys 
I'm not like you 
I am still the skeptic yes you know me 
Been best friends and will be till we die 
I got an injection 
Of fear from the abduction 
My best friend thinks I'm just telling lies 
Up all night long 
And there's something very wrong 
And I know it must be late 
Been gone since yesterday 
I'm not like you guys 
I'm not like you 
Dark and scary, ordinary, explanation 
Information, nice to know ya, parnoia 
Where's my mother, biofather 
Up all night long 
And there's something very wrong 
And I know it must be late 
Been gone since yesterday 
I'm not like you guys 
Twelve majestic lies 
 
less
plus
Add to Songbook Print Version How to play lesson Submit videolesson
Click the best TAGS for this song:
None of them
Contributor: ibudStor Correct

If you can not find the chords or tabs you want, look at our partner E-chords. If you are a premium member, you have total access to our video lessons.

If you find a wrong Bad To Me from Blink 182, click the correct button above.

login/signup
my songbooks
my recent views
my submits