tools Ultimate Tabs

Start AutoScroll Font Size Down Font Size Up

Find us on Facebook

chords
tabs bass ukulele keyboards drums
flute
harmonica
guitar pro video
Ultimate-Tabs

All The Small Things

Introdução: ( G5  F5 ) C5  G5 
            ( F5 ) C5  G5 ( F5 ) 

e|---------------------------------------------------| 
B|---------------------------------------------------| 
G|-5-5-5-5-5-5-5-5-10-10-10-10-10-10-10-10-7-7-7-7-7-| 
D|---------------------------------------------------| 
A|-3-3-3-3-3-3-3-3--8--8--8--8--8--8--8--8-5-5-5-5-5-| 
E|---------------------------------------------------| 

e|---------------------------------------------------| 
B|---------------------------------------------------| 
G|-7-7-7-7-x-x-x-x-5-5-5-5-5-5-5-5-5-5-5-10-10-10-10-| 
D|---------------------------------------------------| 
A|-5-5-5-5-x-x-x-x-3-3-3-3-3-3-3-3-3-3-3--8--8--8--8-| 
E|---------------------------------------------------| 

e|---------------------------------------------------| 
B|---------------------------------------------------| 
G|-10-10-10-10-7-7-7-7-7-7-7-7-7-x-x-x-x-5-5-5-------| 
D|---------------------------------------------------| 
A|--8--8--8--8-5-5-5-5-5-5-5-5-5-x-x-x-x-3-3-3-------| 
E|---------------------------------------------------| 

Verse : C5 G5 F5 All the small things G5 C5 True care, truth brings G5 F5 I'll take one lift G5 C5 Your ride best trip G5 F5 Always, I know G5 C5 You'll be at my show G5 F5 G5 C5 Watching, waiting, commi____serating Say it aint so, I will not go Turn the lights off, carry me home C5 G5 Na na, Na na, Na na, Na na, Na, Na F5 Na na, Na na, Na na, Na na, Na, Na (2x) Interludio: C5 G5 ( F5 ) C5 G5 ( F5 )
e|---------------------------------------------------| 
B|---------------------------------------------------| 
G|-5-5-5-5-5-5-5-5-10-10-10-10-9-9-9-9-7-7-7-7-7-----| 
D|---------------------------------------------------| 
A|-3-3-3-3-3-3-3-3--8--8--8--8-7-7-7-7-5-5-5-5-5-----| 
E|---------------------------------------------------| 

e|---------------------------------------------------| 
B|---------------------------------------------------| 
G|-7-7-7-7-x-x-x-x-5-5-5-5-5-5-5-5-5-5-5-10-10-10-10-| 
D|---------------------------------------------------| 
A|-5-5-5-5-x-x-x-x-3-3-3-3-3-3-3-3-3-3-3--8--8--8--8-| 
E|---------------------------------------------------| 

e|---------------------------------------------------| 
B|---------------------------------------------------| 
G|-9-9-9-9-7-7-7-7-7-7-7-7-7-x-x-x-x-5-5-5-----------| 
D|---------------------------------------------------| 
A|-7-7-7-7-5-5-5-5-5-5-5-5-5-x-x-x-x-3-3-3-----------| 
E|---------------------------------------------------| 

C5 G5 F5 Late night, come home G5 C5 Work sucks, I know G5 F5 She left me roses by the stairs G5 C5 Surprises let me know she cares Say it aint so, I will not go Turn the lights off, carry me home C5 G5 Na na, Na na, Na na, Na na, Na, Na F5 C5 Na na, Na na, Na na, Na na, Na, Na (2x) Ponte: C F5 G5
  P.M . . . . . . . . . . . . . . . . . . . . . . 
e|---------------------------------------------------| 
B|---------------------------------------------------| 
G|-5---5---5---5---5---5---5---5---5---5---5---5-----| 
D|---5---5---5---5---5---5---5---5---5---5---5---5---| 
A|---------------------------------------------------| 
E|---------------------------------------------------| 
   P.M . . . . . . . . . . . . . . . . . . . . . . 
e|---------------------------------------------------| 
B|---------------------------------------------------| 
G|-4---4---4---4---5---5---5---5---5---5---5---5-----| 
D|---5---5---5---5---5---5---5---5---5---5---5---5---| 
A|---------------------------------------------------| 
E|---------------------------------------------------| 
   P.M . . . . . . . . . . . . . . . . . . . . . . 
e|---------------------------------------------------| 
B|---------------------------------------------------| 
G|-5---5---5---5---4---4---4---4---5---5---5---5-----| 
D|---5---5---5---5---5---5---5---5---5---5---5---5---| 
A|---------------------------------------------------| 
E|---------------------------------------------------| 
   P.M . . . . . . . . . . . . . . . . . . . . . . 
e|---------------------------------------------------| 
B|---------------------------------------------------| 
G|-5---5---5---5---5---5---5---5---5---5---5---5-----| 
D|---5---5---5---5---5---5---5---5---5---5---5---5---| 
A|---------------------------------------------------| 
E|---------------------------------------------------| 

C5 G5 Say it aint so, I will not go F5 C5 Turn the lights off, carry me home G5 Keep your head still, I'll be your thrill F5 C5 The night will go on,my little windmill G5 Say it aint so, I will not go F5 C5 Turn the lights off, carry me home G5 Keep your head still, I'll be your thrill F5 The night will go on, the night will go on C5 My little windmillConfigurações
less
plus
Add to Songbook Print Version How to play lesson Submit videolesson
Click the best TAGS for this song:
None of them
Contributor: urshstor Correct

If you can not find the chords or tabs you want, look at our partner E-chords. If you are a premium member, you have total access to our video lessons.

If you find a wrong Bad To Me from Blink 182, click the correct button above.

login/signup
my songbooks
my recent views
my submits