tools Ultimate Tabs

Start AutoScroll Font Size Down Font Size Up

Find us on Facebook

Ultimate-Tabs

All The Small Things

INTRO(CIFRA):C F G 2X  C
iNTRO(TAB): 
e|----------------------------------------------------------------------------------|2
B|------------------------------5-5-5-5-5-5-5---------------------------------------|v
G|------------5-5-5-5-5-5-5-----5-5-5-5-5-5-5---------------------------------------|e
D|--5-3-------5-5-5-5-5-5-5-----3-3-3-3-3-3-3-----5-5-5-5-5-5-5-------x-x-x-x-x-3-3-|z
A|--5-3-------3-3-3-3-3-3-3-----------------------5-5-5-5-5-5-5-------x-x-x-x-x-3-3-|e
E|--3-1-------------------------------------------3-3-3-3-3-3-3-------x-x-x-x-x-1-1-|s

        G           F
All the , small things
      G               C
True care, truth brings
      G           F
I'll take, one lift
     G             C
Your ride, best trip
     G       F
Always, I know
        G           C
You'll be at my show
     G         F         G      C
Watching, waiting, commiserating
                            G                    F              C
Say it ain't so, I will not go, turn the lights off, carry me home

Na, na na, na na, na
            G
na, na na, na na  
             F             C
na, na na, na na, na na, na 2X
----------
intro 2x
---------
Repita junto com a INTRO 2x
e|------------------------------------------------------------------------
B|------------------------------------------------------------------------
G|---10-10-10-10-10-10--9-9-9-9--7-7-7-7-7-7----------------------------
D|---10-10-10-10-10-10--9-9-9-9--7-7-7-7-7-7------------------------------
A|----8--8--8--8--8--8--7-7-7-7--5-5-5-5-5-0------------------------------
E|------------------------------------------------------------------------


        G          F
Late night, come home
         G        C
Work sucks, I know
              G            F        G                        C
She left me roses by the stairs, surprises let me know she cares
                            G                    F              C
Say it ain't so, I will not go, turn the lights off, carry me home
Na, na na, na na, na
            G
na, na na, na na  
             F             C
na, na na, na na, na na, na 2X

(C F G 4X)
ESTE SOLO  TOCADO JUNTO COM OS ACORDES ACIMA NA 2X :
e|------------------------------------------------------------------|
B|------------------------------------------------------------------|
G|------------------------------------------------------------------|
D|------------------------------------------------------------------|
A|--4---4---4---4---3---3---6---6---4---4---4---4---3---3---6---6---|
E|----4---4---4---4---4---4---4---4---2---2---2---2---4---4---4---4-|

C                             G                    F            C 
Say it ain't so, I will not go, turn the lights off, carry me home
                                       G                      F
Keep your head still, I'll be your thrill, the night go on, my 
              C
little windmill

2 VOZ:
(Na, na na, na na, na na...)

                             G                    F              C
Say it ain't so, I will not go, turn the lights off, carry me home
                                       G                 F 
Keep your head still, I'll be your thrill, the night go on, the night
                        C
go on, my little windmill
less
plus
Add to Songbook Print Version How to play lesson Submit videolesson
Click the best TAGS for this song:
None of them
Contributor: Katrppur Correct

If you can not find the chords or tabs you want, look at our partner E-chords. If you are a premium member, you have total access to our video lessons.

If you find a wrong Bad To Me from Blink 182, click the correct button above.

login/signup
my songbooks
my recent views
my submits