Blink 182

Don't Leave Me (ver. 2) tab

Blink 182

tools Ultimate Tabs

Start AutoScroll Font Size Down Font Size Up

Find us on Facebook

chords
tabs
bass
ukulele
keyboards
drums
flute
harmonica
guitar pro
video
Ultimate-Tabs

Don't Leave Me (ver. 2)

Intro
G|-----------2-2-2-2-2-------------7-7-7-7-7-------4-4-4-4--7-7-7-7--9-9-9-9-
D|-----------2-2-2-2-2-------------7-7-7-7-7-------4-4-4-4--7-7-7-7--9-9-9-9-
A|-0000000---0-0-0-0-0-----555555--5-5-5-5-5--0000-2-2-2-2--5-5-5-5--7-7-7-7-
E|---PM--------------------PM------------------PM----------------------------

she said not im not the one
G|-2-2-2-2--4-4-4-4--7-7-7-7--9-9-9-9---------------------------------------|
D|-2-2-2-2--4-4-4-4--7-7-7-7--9-9-9-9-------------Repita os acordes---------|
A|-0-0-0-0--2-2-2-2--5-5-5-5--7-7-7-7---777777------------------------------|
E|--------------------------------------PM----------------------------------|

one more time of feeling                   Then end with ill be fine

B|----------10-----------10-----             G|-----2-------------- 
G|-----------x------------x-----             D|-2---2----Let ring -
D|--7-7------7----7-7-----7-----             A|-2---0--------------
A|--0-0-----------0-0-----------             E|-0------------------

 
less
plus
Add to Songbook Print Version How to play lesson Submit videolesson
Click the best TAGS for this song:
None of them
Contributor: pobrjoni Correct

If you can not find the chords or tabs you want, look at our partner E-chords. If you are a premium member, you have total access to our video lessons.

If you find a wrong Bad To Me from Blink 182, click the correct button above.

login/signup
my songbooks
my recent views
my submits