Blink 182

Dysentary Gary bass

Blink 182

tools Ultimate Tabs

Start AutoScroll Font Size Down Font Size Up

Find us on Facebook

chords
tabs
bass
ukulele
keyboards
drums
flute
harmonica
guitar pro
video
Ultimate-Tabs

Dysentary Gary

this is a realy good song.

Artist: Blink 182
Album: Enema Of The State
Song: Dysentary Gary
Tabbed by: Jordan Gosselin

h=hammer
p=pull off
~=let ring
/=slide

(Guitar starts, enter at 00:04)
Intro 
G|----------------------------------------|-------------| 
D|----------------------------------------|-------------| 
A|-5~---5-----5-5-5-5-5-5-5-5-5-5---------|-------------|X2 
E|--------------------------------3-3-3-3-|-5-5-5-5-5-5-| on seconed time 
                                                          dont do the two 
                                                          5's at the 
                                                          beginning.
Verse 
G|-------------------------------------------------------------------| 
D|-----------------------------5-0-0-0-0-5~--7---------7---------7---| 
A|-5-0-0-0-0-5~--5-0-0-0-0-5~------------------7-7-7-7---7-7-7-7---7-| 
E|-------------------------------------------------------------------| 

verse part 2
G|------------------------------------------------------------| 
D|------------------------------------------------5-0-0-0-0-5-| 
A|-5-0-0-0-0-5-5-5-5-5h7p5-5-0-0-0-0-5-5-5-5-5-5h7------------|
E|------------------------------------------------------------| 

continued on verse 2
G|---------------------------------------| 
D|-5-5-5-5h7p5--7---------7---------7----| 
A|-----------------7-7-7-7---7-7-7-7---7-| 
E|---------------------------------------| 

pre-Chorus (this pre-chorus is played quickly) 
G|----------------------------------------------------------| 
D|------------------------5-5-5-5-5-5-5-5-7-7-7-7-7-7-7-7-7-| 
A|-5-5-5-5-5-5-5-5-x3-9-7-----------------------------------| 
E|----------------------------------------------------------| 

G|----------------|
D|----------------|
A|2-2-2-2-4-4-4-4-|
E|----------------|x2

Chorus 
G|----------------------------------------------------------------------| 
D|-5-5-5-5-5-5-4h5P/7-7-7-7-7-7h9P7/-------------4----------------------| 
A|-----------------------------------5-5-5-5-5-5h--p5/------------------| 
E|------------------------------------------------------7-7-7-7-7-5h7p5-| 

Chorus continued. 
G|---------------------------------------------------------| 
D|---------------------------------------------------------| 
A|-------------------------------------------------------5-| 
E|-3-3-3-3-3-3-2h3p2-5-5-5-5-5-5-5-5-7-7-7-7-7-7-7-7-7-7---|x1

G|---------|-------------|
D|---------|-------------|
A|---------|-------------|
E|-3-3-3-3-|-5-5-5-5-5-5-| 


G|-----------------------------|-------------| 
D|-----------------------------|-------------| 
A|-5-5-5-5-5-5-5-5-5-5---------|-------------|x1 
E|---------------------3-3-3-3-|-5-5-5-5-5-5-| 

Verse 
G|-------------------------------------------------------------------| 
D|-----------------------------5-0-0-0-0-5~--7---------7---------7---| 
A|-5-0-0-0-0-5~--5-0-0-0-0-5~------------------7-7-7-7---7-7-7-7---7-| 
E|-------------------------------------------------------------------|

verse 2
G|------------------------------------------------------------| 
D|------------------------------------------------5-0-0-0-0-5-| 
A|-5-0-0-0-0-5-5-5-5-5h7p5-5-0-0-0-0-5-5-5-5-5-5h7------------|
E|------------------------------------------------------------| 

continued on verse 2
G|---------------------------------------| 
D|-5-5-5-5h7p5--7---------7---------7----| 
A|-----------------7-7-7-7---7-7-7-7---7-| 
E|---------------------------------------|x1

 pre-Chorus (this pre-chorus is played quickly) 
G|----------------------------------------------------------| 
D|------------------------5-5-5-5-5-5-5-5-7-7-7-7-7-7-7-7-7-| 
A|-5-5-5-5-5-5-5-5-x3-9-7-----------------------------------| 
E|----------------------------------------------------------| 

Continued.
G|----------------|
D|----------------|
A|2-2-2-2-4-4-4-4-|
E|----------------|x4

Chorus 
G|----------------------------------------------------------------------| 
D|-5-5-5-5-5-5-4h5P/7-7-7-7-7-7h9P7/-------------4----------------------| 
A|-----------------------------------5-5-5-5-5-5h--p5/------------------| 
E|------------------------------------------------------7-7-7-7-7-5h7p5-| 

Chorus continued. 
G|---------------------------------------------------------| 
D|---------------------------------------------------------| 
A|---------------------------------------------------------| 
E|-3-3-3-3-3-3-2h3p2-5-5-5-5-5-5-5-5-7-7-7-7-7-7-7-7-7-7---|x1

Bridge
G|------------------|
D|------------------|
A|5h~7p5~-10h~9p12/-|
E|------------------|x3

Bridge continued.
G|--------------|
D|--------------|
A|5h~7p5~---10~-|
E|--------------|

 Chorus 
G|----------------------------------------------------------------------| 
D|-5-5-5-5-5-5-4h5P/7-7-7-7-7-7h9P7/-------------4----------------------| 
A|-----------------------------------5-5-5-5-5-5h--p5/------------------| 
E|------------------------------------------------------7-7-7-7-7-5h7p5-| 

Chorus continued. 
G|--------------------------------------------------------------| 
D|--------------------------------------------------------------| 
A|--------------------------------------------------------5~--5-| 
E|-3-3-3-3-3-3-2h3p2-5-5-5-5-5-5-5-5-7-7-7-7-7-7-7-7-7-7--------|x1

the end 
its a good song its played fast.
any comments e mail me at [email protected]
less
plus
Add to Songbook Print Version How to play lesson Submit videolesson
Click the best TAGS for this song:
None of them
Contributor: pinojarr Correct

If you can not find the chords or tabs you want, look at our partner E-chords. If you are a premium member, you have total access to our video lessons.

If you find a wrong Bad To Me from Blink 182, click the correct button above.

login/signup
my songbooks
my recent views
my submits