S Blink 182

Feeling This chords

Blink 182

Album:Greatest Hits

Year:2005

tools Ultimate Tabs

Start AutoScroll Font Size Down Font Size Up

Find us on Facebook

chords
tabs bass ukulele keyboards drums
flute
harmonica
guitar pro video
Ultimate-Tabs

Feeling This

Riff 1

E|-----------------------------
B|-----------------------------
G|-----------------------------
D|--------------------6--------
A|--7/117-7-7-7---7-----7-----
E|--------------0--------------


I got to regret right now (I'm feeling this!)
The air is so cold and null (I'm feeling this!)
Let me go in her room (I'm feeling this!)
I love all the things you do (I'm feeling this!)
Show me the way to bed (I'm feeling this!)
Show me the way you move (I'm feeling this!)
How can you be such a blur? (I'm feeling this!)
I love all the things you do! (I'm feeling this!)

*****

Riff 2
         E
E|-----------------------------
B|-----------------------------
G|-------9---------------------
D|-------9---------------------
A|-------7---------------------
E|-----------------------------

 E
Fate fell short this time
your smile fades in the summer
 E
place your hand in mine
I'll leave when I wanna

*****

Riff 3

E|------------------------------------------------------
B|------------------------------------------------------
G|------------------------------------------------------
D|------------------------------------------------------
A|--2/7-7777-7/9-9999-9/11-11111111-11-12-12121212------
E|------------------------------------------------------

No fim deste Riff, tocar Riff 1

*****

- FINAL -

(apenas batera)
This place was never the same again
after you came and went
how can you say you meant anything different
to anyone
standing alone on the street
with a cigarette
on the first night we met


E|- B|- C# - A (powerchord abafado)

Look to the past and remember her smile
and maybe tonight I can breathe for a while
I'm not in the seat
I think i'm falling asleep
but then its all I could need cuz i'll always be dreaming of you


E|- B|- C# - A (powerchord normal)

Fate fell short this time
your smile fades in the summer
place your hand in mine
I'll leave when I wanna



_______________________________________________________
Contribuição: Pablo Santiago([email protected]) 
less
plus
Add to Songbook Print Version How to play lesson Submit videolesson
Click the best TAGS for this song:
None of them
Contributor: ellesupa Correct

If you can not find the chords or tabs you want, look at our partner E-chords. If you are a premium member, you have total access to our video lessons.

If you find a wrong Bad To Me from Blink 182, click the correct button above.

login/signup
my songbooks
my recent views
my submits