Blink 182

Story of a Lonely Guy tab

Blink 182

Album:Take off Your Pants and Jacket

Year:2001

tools Ultimate Tabs

Start AutoScroll Font Size Down Font Size Up

Find us on Facebook

Ultimate-Tabs

Story of a Lonely Guy

InTrO:
b---------------0-0-0-0-0-0-0-0-0-0---
g--------2-2-2------------------------
d-2-2-2-------------------------------

b---------------0-0-0-----------------
g--------2-2-2---------2-2-2-2-2-2-2--
d-2-2-2-------------------------------


Versos:

D-2-2-2-2-2-2-2-2-4-4-4-4-4-4-4-
A-0-0-0-0-0-0-0-0-2-2-2-2-2-2-2-


D-6-6-6-6-6-6-6-6-7-7-7-7-7-7-7-7-
A-4-4-4-4-4-4-4-4-5-5-5-5-5-5-5-5-



Pre:
D-7-7-7-7-7-7-7-7-7-7-7-7-7-7-7-
A-4-4-4-4-4-4-4-4-5-5-5-5-5-5-5-

D-7-7-7-7-7-7-7-7-9-9-9-9-9-9-9-9-
A-0-0-0-0-0-0-0-0-7-7-7-7-7-7-7-7-

Refrão:
G-----------------9-9-9-9-9-9-9-9-
D-7-7-7-7-7-7-7-7-9-9-9-9-9-9-9-9-
A-7-7-7-7-7-7-7-7-7-7-7-7-7-7-7-7-
E-5-5-5-5-5-5-5-5-----------------

G-----------------7-7-7-7-7-7-7-7-
D-4-4-4-4-4-4-4-4-7-7-7-7-7-7-7-7-
A-4-4-4-4-4-4-4-4-5-5-5-5-5-5-5-5-
E-2-2-2-2-2-2-2-2-----------------

Inter:
G----------------------------------9--9--9--9-
D-7-7-7-7-7-7-7-7-7-7-7-7-7-7-7-7--9--9--9--9-  (2X)
A-4-4-4-4-4-4-4-4-5-5-5-5-5-5-5-5--7--7--7--7-

D-7-7-7-7-7-7-7-7-7-7-7-7-7-7-7-7--
A-4-4-4-4-4-4-4-4-5-5-5-5-5-5-5-5-    (3X) 
less
plus
Add to Songbook Print Version How to play lesson Submit videolesson
Click the best TAGS for this song:
None of them
Contributor: happsury Correct

If you can not find the chords or tabs you want, look at our partner E-chords. If you are a premium member, you have total access to our video lessons.

If you find a wrong Bad To Me from Blink 182, click the correct button above.

login/signup
my songbooks
my recent views
my submits