S Blink 182

The Rock Show bass

Blink 182

Album:Greatest Hits

Year:2005

tools Ultimate Tabs

Start AutoScroll Font Size Down Font Size Up

Find us on Facebook

chords
tabs
bass
ukulele
keyboards
drums
flute
harmonica
guitar pro video
Ultimate-Tabs

The Rock Show

I haven't yet seen one that's exactly right, but i'm sure this is.

Standard tuning.

INTRO (x2)
G|--------------------------------|--------------------------------|
D|--------------------------------|--------------------------------|
A|-0-0-0-0-0-0-0-0-0-0-0-0-0-0-0-0|-5-5-5-5-5-5-5-5-7-7-7-7-7-7-7-7|
E|--------------------------------|--------------------------------|

PRE-VERSE
G|--------------------------------|
D|--------------------------------|
A|-0-0-0-0-0-0-0-0-0-0-0-0-0-0-0-0|
E|--------------------------------|


VERSE 1
play intro riff x2

INTERLUDE
play intro riff x2

VERSE 2
same as verse 1

CHORUS PART 1 (x2)
G|--------------------------------|--------------------------------|
D|-----------------4---4-2-0---0--|-----------------4---4-2-0---0--|
A|-0---0---0---0-0----------------|-0---0---0---0-0----------------|
E|--------------------------------|--------------------------------|

CHORUS PART 2
G|--------------------------------|--------------------------------|
D|-2-2-2-2-2-2-2-2-0-0-0-0-0-0-0-0|-2-2-2-2-2-2-2-2-0-0-0-0-0-0-0-0|
A|--------------------------------|--------------------------------|
E|--------------------------------|--------------------------------|


G|--------------------------------|
D|-2-2-2-2-2-2-2-2-0--------------|
A|-------------------------4------|
E|--------------------------------|

PRE-VERSE
play intro riff x2

VERSE 3
same as verse 1

CHORUS 
same as first chorus (both parts)

BRIDGE
G|--------------------------------|--------------------------------|
D|-4-4-4-4-4-4-4-4-4-4-4-4-4-4-2-2|-0-0-0-0-0-0-0-0-2-2-0-0--------|
A|--------------------------------|-------------------------4-4-2-2|
E|--------------------------------|--------------------------------|

G|--------------------------------|--------------------------------|
D|--------------------------------|-2-2-2-2-2-2-2-2-2-2-2-2-0-0-2-2|
A|-0-0-0-0-0-0-0-0-0-0-0-0-2-2-4-4|--------------------------------|
E|--------------------------------|--------------------------------|

G|--------------------------------|--------------------------------|
D|-4-4-4-4-4-4-4-4-4-4-4-4-4-4-2-2|-0-0-0-0-0-0-0-0-2-2-0-0--------|
A|--------------------------------|-------------------------4-4-2-2|
E|--------------------------------|--------------------------------|

G|--------------------------------|--------------------------------|
D|--------------------------------|-2-2-2-2-2-2-2-2-0-0-0-0-0-0-0-0|
A|-0-0-0-0-0-0-0-0-0-0-0-0-2-2-4-4|--------------------------------|
E|--------------------------------|--------------------------------|

play chorus again then intro riff until it fades out
less
plus
Add to Songbook Print Version How to play lesson Submit videolesson
Click the best TAGS for this song:
None of them
Contributor: naurlees Correct

If you can not find the chords or tabs you want, look at our partner E-chords. If you are a premium member, you have total access to our video lessons.

If you find a wrong Bad To Me from Blink 182, click the correct button above.

login/signup
my songbooks
my recent views
my submits